» » »

Bad Company Bass tabs (ver.1)

Artists:  A B C D E F G H I J K L M N O P Q R S T U V W X Y Z # 

Bad Company Bass tabs (ver.1)

Bad Company
Rating:
0/5 (0 votes)

Hard to play? Try these video lessons and learn fast.
                NOTE: this is not intended to be an exact tab; only the basics. Listen 
to the tune and you should hear there is slight and subtle variation in 
the bass parts after the first verse. Listen closely and you will hear 
some really tasty timing of octaves and chromatics. Fun to play. Enjoy.

Intro:
G--11P10h11--11-10-11/13--|
D-------------------------|
A-------------------------|
E-------------------------|

Verse: (repeats)
G---------|
D---------|
A----4-6--|
E--6------|

Chorus:
G-------------------------|------------|
D---4------456------------|------------|
A-6---4-4-6--------4---6--|-----4---6--|
E--------------4h6---6----|-4h6---6----|

G-----------|--------------|
D---4-------|--------------|
A-6---------|-----4---6----|
E-----2-4---|-4h6---6------|

Verse: (repeats)
G---------|
D---------|
A----4-6--|
E--6------|

Chorus:
G-------------------------|------------|
D---4------456------------|------------|
A-6---4-4-6--------4---6--|-----4---6--|
E--------------4h6---6----|-4h6---6----|

G-----------|--------------|
D---4-------|--------------|
A-6---------|-----4---6----|
E-----2-4---|-4h6---6------|





Bridge:
G-------------|--11-10-----11-10\--|-----------8-|
D-------------|--------11----------|-------------|
A----4-6-6-4-4|----------11------6-|-----4---6---|
E--6----------|--------------------|-4h6---6-----|


Lead part is the same as the chorus.
G------------------------8-|-----------8-|
D---4------456-------------|-------------|
A-6---4-4-6--------4---6---|-----4---6---|
E--------------4h6---6-----|-4h6---6-----|

Outro:
G-------------------8-|
D---4-----------------|
A-6-----------4---6---|
E----4-2--4h6---6-----|
            
Hard to play? Try these video lessons and learn fast. | Correct




comments powered by Disqus
↑ Back to top | Tablatures and chords are parodies/interpretations of the original songs. You may use it for private study, scholarship, research or language learning purposes only