» » »

I Luv I Jah Bass tabs (ver.1)

Artists:  A B C D E F G H I J K L M N O P Q R S T U V W X Y Z # 

I Luv I Jah Bass tabs (ver.1)

Bad Brains
Rating:
0/5 (0 votes)

Hard to play? Try these video lessons and learn fast.
                Intro
G|----------|
D|----------|
A|-3~--3~---|
E|---1~--1~-|

Verse
G|--------------------------------------------|
D|--------------------------------------------|
A|-3-3-----3-3—3------3-3---------------------|
E|-----3-3--------3-3-----1-1-1-1-1-1-1-1-1-1-|

G|--------------------------------------------------------|
D|---------------------5--5—3-----------------------------|
A|-3-3-3-3-3---3-3-3-3—--3----3---------------------------|
E|----------3-3----------------0-1-1-1-1-0-1-1-0-1-1-1-1-1|

Chorus
G|------------------------------------------------|
D|--------------------5-4-3-3-3-3-3-----3-3-------|
A|-----------5----------------------3-3-----------|
E|-3-3-3-3-3---3-3--3-------------------------0-1-|

G|---------------------------------------------------|
D|----5-5-5----------------------------------------3-|
A|----------5-5----------------------3-3-------------|
E|-3------------3-3-3-3-3—-3-2-1-1-1----1-1----------|

G|-------------------------------5-5---------|
D|----------------5-4-3-3-3-3-3------3-3-----|
A|------5------------------------------------|
E|-3-3-3--3-3--3-------------------------0-1-|

G|------------------------------------------|
D|----------------5-4-3-3-3-3-3-----3-3-----|
A|-----------------------------3-3----------|
E|-3-3-3-3-3-3---3----------------------0-1-|

Verse

Chorus


Bass Solo
G|2-4-4-4------------------------------------------------|
D|-------4-4------------------------------5-----4--------|
A|-----------2-2-2-2-2—2-----2-2-----5-5---5-----4-------|
E|-----------------------2-2-----3-3---------2-----0-2-2-|

G|------------------------------------------------------|
D|-------------4-4--------------------5-----4-----------|
A|---2-2-2-2-2----2-2-------2-2---5-5---5-----4---------|
E|-2-----------------2-2-2-2---3-3--------2-----0-2-2-2-|

Verse 2
G|------------------------------------------------|
D|-----------------------------5------4-----------|
A|-2-2----2-2-2----2-2-----5-5---5------4---------|
E|-----2--------2-----3-3----------2------0-2-2-2-|
 
Then Change Between the solo and the verse until the end of the song
            
Hard to play? Try these video lessons and learn fast. | Correct




comments powered by Disqus
↑ Back to top | Tablatures and chords are parodies/interpretations of the original songs. You may use it for private study, scholarship, research or language learning purposes only