>
 >
I Luv I Jah

I Luv I Jah Bass Tabs

Bad Brains - I Luv I Jah chords, tabs, tablatures, lyrics

Guitar lessons | Add/correct | Request | Top 50 tabs Artists:  A B C D E F G H I J K L M N O P Q R S T U V W X Y Z 0-9

I Luv I Jah Bass Tabs – Bad Brains

CD, Sheet music, Poster

Do you like I Luv I Jah? Share with your friends now
Bass TabsBass Tabs v2
Intro
G|----------|
D|----------|
A|-3~--3~---|
E|---1~--1~-|

Verse
G|--------------------------------------------|
D|--------------------------------------------|
A|-3-3-----3-33------3-3---------------------|
E|-----3-3--------3-3-----1-1-1-1-1-1-1-1-1-1-|

G|--------------------------------------------------------|
D|---------------------5--53-----------------------------|
A|-3-3-3-3-3---3-3-3-3--3----3---------------------------|
E|----------3-3----------------0-1-1-1-1-0-1-1-0-1-1-1-1-1|

Chorus
G|------------------------------------------------|
D|--------------------5-4-3-3-3-3-3-----3-3-------|
A|-----------5----------------------3-3-----------|
E|-3-3-3-3-3---3-3--3-------------------------0-1-|

G|---------------------------------------------------|
D|----5-5-5----------------------------------------3-|
A|----------5-5----------------------3-3-------------|
E|-3------------3-3-3-3-3-3-2-1-1-1----1-1----------|

G|-------------------------------5-5---------|
D|----------------5-4-3-3-3-3-3------3-3-----|
A|------5------------------------------------|
E|-3-3-3--3-3--3-------------------------0-1-|

G|------------------------------------------|
D|----------------5-4-3-3-3-3-3-----3-3-----|
A|-----------------------------3-3----------|
E|-3-3-3-3-3-3---3----------------------0-1-|

Verse

Chorus


Bass Solo
G|2-4-4-4------------------------------------------------|
D|-------4-4------------------------------5-----4--------|
A|-----------2-2-2-2-22-----2-2-----5-5---5-----4-------|
E|-----------------------2-2-----3-3---------2-----0-2-2-|

G|------------------------------------------------------|
D|-------------4-4--------------------5-----4-----------|
A|---2-2-2-2-2----2-2-------2-2---5-5---5-----4---------|
E|-2-----------------2-2-2-2---3-3--------2-----0-2-2-2-|

Verse 2
G|------------------------------------------------|
D|-----------------------------5------4-----------|
A|-2-2----2-2-2----2-2-----5-5---5------4---------|
E|-----2--------2-----3-3----------2------0-2-2-2-|
 
Then Change Between the solo and the verse until the end of the song





Comments


Popular Bad Brains tabs & chords
Attitude Bass Tabs
I Luv I Jah 2 Bass Tabs
At The Movies Intro Tabs
Attitude Tabs
Big Takeover Tabs
Big Takeover 1 Tabs
House Of Suffering Tabs
Joshua's Song Tabs
Right Brigade 1 Tabs
Banned In Dc Ukulele


Song lyrics



↑ Back to top | Tablatures and chords are parodies/interpretations of the original songs. You may use it for private study, scholarship, research or language learning purposes only
© 2014 AZChords.com Contact us | Privacy policy | DMCA | Add/correct tabs | Request tabs | Top 50 tabs