» » »

Bad Acid Trip, Wonderful Life Tabs (ver.2)

Artists:  A B C D E F G H I J K L M N O P Q R S T U V W X Y Z # 

Wonderful Life Tabs (ver.2)

Bad Acid Trip Tabs
Rating:
0/5 (0 votes)
Wonderful Life lessons Tabs too difficult? Try these video lessons and learn fast
                -------------------------------------------------------------------------------
                             Wonderful Life - Bad Acid Trip
-------------------------------------------------------------------------------

Tuning:Dropped D --D A D G B e--

e|---------------------------------------------------------------------------|
B|---------------------------------------------------------------------------|
G|---------------------------------------------------------------------------|
D|-------------------------------------------------6-7-6-7-6-7-6-7---x1------|
A|---------------------------------6-7-6-7-6-7-6-7---------------------------|
D|-6-7-6-7-6-7-6-7-6-7-6-7-6-7-6-7-------------------------------------------|

e|---------------------------------------------------------------------------|
B|---------------------------------------------------------------------------|
G|------------66-77----------------------------------------------------------|
D|-77-66-88-7----------x8-------1~--2~--1~--5~-------1-1-1-1-2-2-2-2-1-1-1-1-|
A|------------------------------1~--2~--1~--5~---x4--1-1-1-1-2-2-2-2-1-1-1-1-|
D|------------------------------1~--2~--1~--5~-------1-1-1-1-2-2-2-2-1-1-1-1-|

e|---------------------------------------------------------------------------|
B|---------------------------------------------------------------------------|
G|---------------------------------------------------------------------------|
D|-5-5-5-5--------1-1--1-1--1-1--1-1--1-1--1-1--1-1--1-1----x4---------------|
A|-5-5-5-5---x4------1----1----1----1----1----1----1----1--------------------|
D|-5-5-5-5-------------------------------------------------------------------|

e|---------------------------------------------------------------------------|
B|---------------------------------------------------------------------------|
G|-------------------------4-3h4p3h4p3h4p3h4-------------------66-77---------|
D|--2-1h2p1h2p1h2p1h2-----3---------------------x4-----7-6-8-7----------x1---|
A|-1---------------------------------------------------7-6-8-7---------------|
D|-----------------------------------------------------7-6-8-7---------------|

e|---------------------------------------------------------------------------|
B|---------------------------------------------------------------------------|
G|------------66-77----------------------------------------------------------|
D|-77-66-88-7----------x8-------1~--2~--1~--5~-------1-1-1-1-2-2-2-2-1-1-1-1-|
A|------------------------------1~--2~--1~--5~---x4--1-1-1-1-2-2-2-2-1-1-1-1-|
D|------------------------------1~--2~--1~--5~-------1-1-1-1-2-2-2-2-1-1-1-1-|

e|---------------------------------------------------------------------------|
B|---------------------------------------------------------------------------|
G|---------------------------------------------------------------------------|
D|-5-5-5-5--------1-1--1-1--1-1--1-1--1-1--1-1--1-1--1-1----x4---------------|
A|-5-5-5-5---x4------1----1----1----1----1----1----1----1--------------------|
D|-5-5-5-5-------------------------------------------------------------------|



| /  slide up
| \  slide down
| h  hammer-on
| p  pull-off
| ~  vibrato
| +  harmonic
| x  Mute note
===============================================================================
            
Submit corrections

comments powered by Disqus
↑ Back to top | Bad Acid Trip Tabs for Wonderful Life. Lyrics for acoustic guitar and electric guitar. Tablatures and chords are parodies/interpretations of the original songs. You may use it for private study, scholarship, research or language learning purposes only