» » »

Wonderful Life Tabs (ver.1)

Artists:  A B C D E F G H I J K L M N O P Q R S T U V W X Y Z # 

Wonderful Life Tabs (ver.1)

Bad Acid Trip
Rating:
4/5 (1 vote)

Hard to play? Try these video lessons and learn fast.
                *****************************************************************************
**********************Wonderful Life*****************************************
*****************************************************************************

This is a great song and i just had to tab it im not sure if it right but it sounds atune so enjoy

part 1
E|-----------------------------------------|
B|-----------------------------------------|
G|-----------------------------------------|
D|----------------------------7-8-7-8-7-8--|
A|-----------------7-8-7-8-7-8-------------|
D|-7-8-7-8-7-8-7-8-------------------------|

part 2
E|----------------------------------------|
B|----------------------------------------|
G|--------------------------7-8-----------|
D|------------------7-8-9-7---------------|
A|----------------------------------------|
D|----------------------------------------|

part 3
E|----------------------------------------|
B|----------------------------------------|
G|----------------------------------------|
D|--2-2-2-5-5-5-2-2-2-888-----------------|
A|--2-2-2-5-5-5-2-2-2-888-----------------|
D|--2-2-2-5-5-5-2-2-2-888-----------------|

Part 4
E|----------------------------------------|
B|----------------------------------------|  (those are 2s not 22s)
G|----------------------------------------|
D|---22-22-22-22-22-22-22-22-22-22-22-22--|
A|-----2--2--2--2--2--2--2--2--2--2--2--2-|
D|----------------------------------------|

Part 5 (solo)
E|-----------------------------------------|
B|-----------------------------------------|
G|-----------------------------5--43434343-|
D|----3-23232323-------------4-------------|
A|--2--------------------------------------|
D|-----------------------------------------|

In order

Part one
Part two
Part three
Part four
Part five (solo)
Part two
Part three
Part four

And thats it Enjoy
            
Hard to play? Try these video lessons and learn fast. | Correct




comments powered by Disqus
↑ Back to top | Tablatures and chords are parodies/interpretations of the original songs. You may use it for private study, scholarship, research or language learning purposes only