» » »

Backstreet Boys, I Want It That Way Bass tabs (ver.1)

Artists:  A B C D E F G H I J K L M N O P Q R S T U V W X Y Z # 

I Want It That Way Bass tabs (ver.1)

Backstreet Boys Tabs
Rating:
0/5 (0 votes)
I Want It That Way lessons Tabs too difficult? Try these video lessons and learn fast
                
Drop D Tuning! (Tune your E string down a whole step (2 notes)
to D. The 12th fret of the E should be the same the open D string.

Also, the recording itself is tuned down approx 1/4 step, so you'll
have to do the same if you wish to play along.

This is just the basic tab. There are a couple of octave fills, etc.,
but this will get the song going.

Guitar Chords are listed above the bass tabs and in conjunction with
the lyrics.

Intro: 

  F#m  D   A  (x2)
G-------------
D-------------
A----------0--
D--4---0------


Verse:
G------------------------------
D------------------------------
A---------------------------0--
D--------4---------0-----------

G------------------------------
D------------------------------
A---------------------------0--
D-----4-------------2----------


G-------------------------------------
D-------------------------------------
A--------------------------0-0-0-0-0--
D--4-4-4-4-4-4-4-4-4-0-0-0------------

G-----------------------------------
D-----------------------------------
A------------------------0-0-0-0-0--
D--4-4-4-4-4-4-4-4-2-2-2------------


Chorus:
G------------------------------------------------------
D------------------------------------------------------
A--------5--5--5--5--5--5--5--5------------------------
D-------------------------------------2-2-2-4-4-4-4-4--

G-----------------------------------------------------
D-----------------------------------------------------
A--------5-5-5-5-5-5-5-5-------------------0-0-0-0-0--
D------------------------------2-2-2------------------

G-----------------------------------
D-----------------------------------
A------------------------0-0-0-0-0--
D--4-4-4-4-4-4-4-4-2-2-2------------

G-----------------------------------
D-----------------------------------
A------------------4-4-4-4-4-4-4-4--
D--4-4-4-4-4-4-4-4------------------


Bridge:
G--------------------------------------------------------
D--------------------------------------------------------
A--------------------------------0--0--0--0--0--0--0--0--
D--4--4--4--4--4--4--4--4--------------------------------

G------------------------------------------------
D------------------------------------------------
A--------5-5-5-5-5-5-5-5-------------------------
D-------------------------------4-4-4-4-2-2-2-2--

G------------------------------------------------
D------------------------------------------------
A-------------------------------0-0-0-0-0-0-0-0--
D-----4--4--4--4--4--4--4--4---------------------

G---------------------------------------
D---------------------------------------
A-------------------5---5----7-7-7-7-7--
D----0-0------0/5-----------------------

Verse (N.C.):

Chorus:

G--------------------------------------------------
D--------------------------------------------------
A--------------------------------------------------
D--2--2--2--2--2--2--2--2--4--4--4--6--6--6--6--6--

G----------------------------------------------
D----------------------------------------------
A-------------------------------2--2--2--2--2--
D--2-2-2-2-2-2-2-2---4--4--4-------------------

G------------------------------------
D------------------------------------
A-------------------------2-2-2-2-2--
D--6-6-6-6-6-6-6--4--4--4------------

Same...

Enjoy.
            

comments powered by Disqus
↑ Back to top | Backstreet Boys Bass for I Want It That Way. Lyrics for acoustic guitar and electric guitar. Tablatures and chords are parodies/interpretations of the original songs. You may use it for private study, scholarship, research or language learning purposes only