>
 >
Chain

Chain Guitar Tabs

Back-on - Chain chords, tabs, tablatures, lyrics

Guitar lessons | Add/correct | Request | Top 50 tabs Artists:  A B C D E F G H I J K L M N O P Q R S T U V W X Y Z 0-9

Chain Guitar Tabs – Back-on

CD, Sheet music, Poster

Do you like Chain? Share with your friends now
ChordsTabsUkulele
			     Chain (ALBUM MIX) - BACK-ON

Great song by BACK-ON, I believe it's their top single.
This might be one of the most comprehensive tabs you've ever seen, but it's 
organized in a way that's easy to see.
Part - Guitar(s) [Effect] (Start - End)
Got it? Good.

Genre: J-Rock/Nu Metal
Released: June 7th, 2006

If you're confused as to where a guitar comes in, check the start time of the riff.

Guitar 1 - Shu
Guitar 2 - Kenji03

Intro - Guitar 1 [Clean] (00:00 - 00:11)
D|----5----------5-------5-------3----------3--------3----|
A|------------6--------------------------5--------5-------|
F|-------5-7--------5-7-------(5)---2-5--------5----------|  x2
C|--------------------------------------------------------|
G|--------------------------------------------------------|
D|--------------------------------------------------------|

Intro - Guitar 2 [Clean] (00:00 - 00:11)
D|--------------------------------------------------------|
A|--------------------------------------------------------|
F|--------------------------------------------------------|
C|--------------------------------------------------------|
G|--------------------------------------------------------|
D|--------------------------------------------------------|

Intro Verse - Guitar 1 + 2 [Distorted] (00:11 - 00:32)
D|-----------------------------------------------------------------------------|
A|-----------------------------------------------------------------------------|
F|7-7-7-\-----------------3-3-3-x-3-2-2-2-7-7-7-\-----------------3-3-3-/-5-5-5|  x4
C|7-7-7-\-3-3-3-/-5-5-5---3-3-3-x-3-2-2-2-7-7-7-\-3-3-3-/-5-5-5---3-3-3-/-5-5-5|
G|5-5-5-\-3-3-3-/-5-5-5---1-1-1-x-1-0-0-0-5-5-5-\-3-3-3-/-5-5-5---1-1-1-/-3-3-3|
D|--------1-1-1-/-3-3-3---------------------------1-1-1-/-3-3-3----------------|

Verse 1 - Guitar 1 [Clean] (00:32 - 00:52)
D|----5----------5-------5-------3----------3--------3----|
A|------------6--------------------------5--------5-------|
F|-------5-7--------5-7-------(5)---2-5--------5----------|  x4
C|--------------------------------------------------------|
G|--------------------------------------------------------|
D|--------------------------------------------------------|

Verse 1 - Guitar 2 [Clean w/ Flanger] (00:42 - 00:52)
D|--------------------------------|
A|--------------------------------|
F|----14--------12----17----10----|  x2
C|----12--------10----15----8-----|
G|----12--------10----15----8-----|
D|--------------------------------|

Bridge - Guitar 1 + 2 [Distorted] (00:52 - 01:14)
D|---------------------------------------|
A|---------------------------------------|
F|3--------5----7----3---------5----7----|
C|3--------5----7----3----3----5----7----|
G|1--------3----5----1----3----3----5----|
D|------------------------1--------------|

D|-------------------------------------------------------------------------|
A|-------------------------------------------------------------------------|
F|---------------------------------------------------------------7----7----|
C|33333333333333-55555555-77777777-33333333----------55555555----7----7----|
G|11111111111111-33333333-55555555-11111111-33333333-33333333----5----5----|
D|------------------------------------------11111111-----------------------|
  |________________________Palm_Mute________________________|

Chorus - Guitar 1 + 2 [Distorted] (01:14 - 01:35)
D|-----------------------------------------------------------------------------|
A|-----------------------------------------------------------------------------|
F|7-7-7-\-----------------3-3-3-x-3-2-2-2-7-7-7-\-----------------3-3-3-/-5-5-5|  x4
C|7-7-7-\-3-3-3-/-5-5-5---3-3-3-x-3-2-2-2-7-7-7-\-3-3-3-/-5-5-5---3-3-3-/-5-5-5|
G|5-5-5-\-3-3-3-/-5-5-5---1-1-1-x-1-0-0-0-5-5-5-\-3-3-3-/-5-5-5---1-1-1-/-3-3-3|
D|--------1-1-1-/-3-3-3---------------------------1-1-1-/-3-3-3----------------|

Verse 2 - Guitar 1 [Clean] (01:35 - 01:55)
D|----5----------5-------5-------3----------3--------3----|
A|------------6--------------------------5--------5-------|
F|-------5-7--------5-7-------(5)---2-5--------5----------|  x4
C|--------------------------------------------------------|
G|--------------------------------------------------------|
D|--------------------------------------------------------|

Verse 2 - Guitar 2 [Clean w/ Flanger] (01:45 - 01:55)
D|--------------------------------|
A|--------------------------------|
F|----14--------12----17----10----|  x2
C|----12--------10----15----8-----|
G|----12--------10----15----8-----|
D|--------------------------------|

Bridge - Guitar 1 + 2 [Distorted] (01:55 - 02:16)
D|---------------------------------------|
A|---------------------------------------|
F|3--------5----7----3---------5----7----|
C|3--------5----7----3----3----5----7----|
G|1--------3----5----1----3----3----5----|
D|------------------------1--------------|

D|-------------------------------------------------------------------------|
A|-------------------------------------------------------------------------|
F|---------------------------------------------------------------7----7----|
C|33333333333333-55555555-77777777-33333333----------55555555----7----7----|
G|11111111111111-33333333-55555555-11111111-33333333-33333333----5----5----|
D|------------------------------------------11111111-----------------------|
  |________________________Palm_Mute________________________|

Chorus - Guitar 1 + 2 [Distorted] (02:16 - 02:37)
D|-----------------------------------------------------------------------------|
A|-----------------------------------------------------------------------------|
F|7-7-7-\-----------------3-3-3-x-3-2-2-2-7-7-7-\-----------------3-3-3-/-5-5-5|  x4
C|7-7-7-\-3-3-3-/-5-5-5---3-3-3-x-3-2-2-2-7-7-7-\-3-3-3-/-5-5-5---3-3-3-/-5-5-5|
G|5-5-5-\-3-3-3-/-5-5-5---1-1-1-x-1-0-0-0-5-5-5-\-3-3-3-/-5-5-5---1-1-1-/-3-3-3|
D|--------1-1-1-/-3-3-3---------------------------1-1-1-/-3-3-3----------------|

Interlude - Neither Guitar plays (02:37 - 02:47)

Breakdown - Guitar 1 + 2 [Distorted] (02:47 - 02:58)
D|-----------------------------------------------------------------------------|
A|-----------------------------------------------------------------------------|
F|7-7-7-\-----------------3-3-3-x-3-2-2-2-7-7-7-\-----------------3-3-3-/-5-5-5|  x2
C|7-7-7-\-3-3-3-/-5-5-5---3-3-3-x-3-2-2-2-7-7-7-\-3-3-3-/-5-5-5---3-3-3-/-5-5-5|
G|5-5-5-\-3-3-3-/-5-5-5---1-1-1-x-1-0-0-0-5-5-5-\-3-3-3-/-5-5-5---1-1-1-/-3-3-3|
D|--------1-1-1-/-3-3-3---------------------------1-1-1-/-3-3-3----------------|

Short Interlude - Guitar 1 + 2 [Distorted] (02:58 - 03:05)
D|--------------------------------------------|
A|--------------------------------------------|
F|----------------------------------7----7----|
C|----------------------------------7----5----|
G|----------------------------------5----5----|
D|--------------------------------------------|

Chorus - Guitar 1 + 2 [Distorted] (03:05 - 03:26)
D|-----------------------------------------------------------------------------|
A|-----------------------------------------------------------------------------|
F|7-7-7-\-----------------3-3-3-x-3-2-2-2-7-7-7-\-----------------3-3-3-/-5-5-5|  x4
C|7-7-7-\-3-3-3-/-5-5-5---3-3-3-x-3-2-2-2-7-7-7-\-3-3-3-/-5-5-5---3-3-3-/-5-5-5|
G|5-5-5-\-3-3-3-/-5-5-5---1-1-1-x-1-0-0-0-5-5-5-\-3-3-3-/-5-5-5---1-1-1-/-3-3-3|
D|--------1-1-1-/-3-3-3---------------------------1-1-1-/-3-3-3----------------|

Outro - Guitar 1 [Distorted] (03:26 - 03:40)
D|----------------|
A|----------------|  * See bottom
F|7-7-7-\---------|
C|7-7-7-\-3-3-3-5-|
G|5-5-5-\-3-3-3-5-|
D|--------1-1-1-3-|

D|-------------------------------------------------------------------------------|
A|-------------------------------------------------------------------------------|
F|7-7-7-\-----------------3-3-3-x-3-2-2-2-7-7-7-\-----------------3-3-3-/-5-5-5-5|  
C|7-7-7-\-3-3-3-/-5-5-5---3-3-3-x-3-2-2-2-7-7-7-\-3-3-3-/-5-5-5---3-3-3-/-5-5-5-5|
G|5-5-5-\-3-3-3-/-5-5-5---1-1-1-x-1-0-0-0-5-5-5-\-3-3-3-/-5-5-5---1-1-1-/-3-3-3-3|
D|--------1-1-1-/-3-3-3---------------------------1-1-1-/-3-3-3------------------|

Outro - Guitar 2 [Distorted] (03:26 - 03:40)
D|----------------|
A|----------------|  * See bottom
F|7-7-7-\---------|
C|7-7-7-\-3-3-3-5-|
G|5-5-5-\-3-3-3-5-|
D|--------1-1-1-3-|

D|-------------------------------------------------------------------------------|
A|-------------------------------------------------------------------------------|
F|7-7-7-\-----------------3-3-3-x-3-2-2-2-7-7-7-\-----------------3-3-3-/-5-5-5-5|  
C|7-7-7-\-3-3-3-/-5-5-5---3-3-3-x-3-2-2-2-7-7-7-\-3-3-3-/-5-5-5---3-3-3-/-5-5-5-5|
G|5-5-5-\-3-3-3-/-5-5-5---1-1-1-x-1-0-0-0-5-5-5-\-3-3-3-/-5-5-5---1-1-1-/-3-3-3-3|
D|--------1-1-1-/-3-3-3---------------------------1-1-1-/-3-3-3------------------|

* Guitar 1 plays this once first, and then Guitar 2 plays it once after Guitar 1.

| /  slide up
| \  slide down
| h  hammer-on
| p  pull-off
| ~  vibrato
| +  harmonic
| x  Mute note
| |_| Palm Mute





Comments


Popular Back-on tabs & chords
Chain Chords
Flydom Chords
Hikari Sasuhou Chords
New World Chords
So Many Tears Chords
Chain Intro Tabs
Chain Intro 1 Tabs
New World Tabs
Hikari Sasuhou Ukulele
New World Ukulele


Song lyrics



↑ Back to top | Tablatures and chords are parodies/interpretations of the original songs. You may use it for private study, scholarship, research or language learning purposes only
© 2014 AZChords.com Contact us | Privacy policy | DMCA | Add/correct tabs | Request tabs | Top 50 tabs