» » »

Back-on, Chain Tabs (ver.1)

Artists:  A B C D E F G H I J K L M N O P Q R S T U V W X Y Z # 

Chain Tabs (ver.1)

Back-on Tabs
 Rating:
3.4/5 (5 votes)
Chain lessons Tabs too difficult? Try these video lessons and learn fast
                (Intro)
Chain by Back-On

This is my first tab ever. I don't know if its right or not.
It sounds pretty close, Im pretty sure i left some other parts. Im open
for comments and stuff. Listen to the song for timing.
If you want to suggest anything let me know at


e|--3---------3----------------------|
B|------4---------3-------3----------|
G|---5-5-5--5---------4--------------|
D|----5----5-------5-5-5-5-----------|
A|------------------5---5------------|
E|-----------------------------------|

or

e|--3---------------------------------|
B|------4-----4---3-------------------|
G|---5-5-5--5---------4---4-----------|
D|----5----5-------5-5-5-5------------|
A|------------------5---5-------------|
E|------------------------------------|
            
Submit corrections

comments powered by Disqus
↑ Back to top | Back-on Tabs for Chain. Lyrics for acoustic guitar and electric guitar. Tablatures and chords are parodies/interpretations of the original songs. You may use it for private study, scholarship, research or language learning purposes only