» » »

Bachman Turner Overdrive, Roll On Down The Highway Bass tabs (ver.1)

Artists:  A B C D E F G H I J K L M N O P Q R S T U V W X Y Z # 

Roll On Down The Highway Bass tabs (ver.1)

Bachman Turner Overdrive Tabs
 Rating:
4.3/5 (6 votes)
Roll On Down The Highway lessons Tabs too difficult? Try these video lessons and learn fast
1
                Intro: 
G[-----------------------------]  
D[-----------------------------] 
A[-----------------------------]x2 
E[-3\-3\-3\-3\-3\-3\-3\-3\-3\--]  

G[------------------------] 
D[-----0------------------] 
A[-------------1-3--5-5-5-] 
E[------------------------] 

Bridge/after verse/after solo: 
G[-------------] 
D[-------------] 
A[--5----------] 
E[-------------] 

Verse/solo: 
G[-----------------------------------------] 
D[-------7--------7----------7---------7---] 
A[--5-5---5---5-5---5----5-5---5---5-5---5-] 
E[-----------------------------------------] 

G[----------------------------------------] 
D[------5---------5---------5---------5---] 
A[--3-3---3---3-3---3---3-3---3---3-3---3-] 
E[----------------------------------------] 

G[---------------------------------------] 
D[------3---------3---------3---------3--] 
A[--1-1---1---1-1---1---1-1---1---1-1---1] 
E[---------------------------------------] 

G[-----------------------------------------] 
D[------2---------2---------2---------2----] 
A[--0-0---0---0-0---0---0-0---0---0-0---0--] 
E[-----------------------------------------] 

Chorus/Outro 
G[-------------------] 
D[--0-0-----0--------]x2 
A[------0h2---2------] 
E[--------------3----] 

G[------------------------------] 
D[--0-0------0------------------](last time hold last note) 
A[------0h2-------1-3-----5-5-5-] 
E[------------------------------]

This is my second tab and it sounds 98% right.This is a really rockin bass tab.
            
Submit corrections

comments powered by Disqus
↑ Back to top | Bachman Turner Overdrive Bass for Roll On Down The Highway. Lyrics for acoustic guitar and electric guitar. 1 Tablatures and chords are parodies/interpretations of the original songs. You may use it for private study, scholarship, research or language learning purposes only