» » »

Bachman Turner Overdrive, You Ain't Seen Nothing Yet Bass tabs (ver.1)

Artists:  A B C D E F G H I J K L M N O P Q R S T U V W X Y Z # 

You Ain't Seen Nothing Yet Bass tabs (ver.1)

Bachman Turner Overdrive Tabs
Rating:
0/5 (0 votes)
Hard to play? Try these video lessons and learn fast.
                BACHMAN TURNER OVERDRIVE - "You Ain't Seen Nothin' Yet" - Bass Tab

common time(4/4)
standard tuning(EADG)

INTRO/VERSE:

|------------|------------|
|*-7-7-7-r---|-5-r-------*|
|*---------5-|-----5-r-5-*| (x4)
|------------|------------|
   1 2 3 4 &   1 2 3 4 &

1ST PRE-CHORUS:

|-----------|-----------|---------|-----------------|---------|
|-----------|-------5-r-|---------|-4-4---4-4-4-----|-------4-|
|-5-------5-|-8-r-5-----|-0-0-4-4-|-------------5-4-|-2-------|
|-----------|-----------|---------|-----------------|---------|
  1 2 3 4 &   1 2 & 3 4   1 2 3 4   1 2 & a 3 & 4 &   1 2 3 4

|---------|
|-2-------|
|---------|
|---------|
  1 2 3 4

1ST & 2ND CHORUS:
                  (x3)
|----------|----------|---------|---------|
|*---------|---------*|---------|---------|
|*-------7-|-5-r-----*|-------7-|-5-4-2-0-|
|--5-r-----|----------|-5-r-----|---------|
   1 2 3 4   1 2 3 4    1 2 3 4   1 2 3 4

2ND & 3RD PRE-CHORUS:

|-----------|-10----------|-------------|-------11-------|
|-0-0-0-r-0-|----10-------|-------------|----------11-10-|
|-----------|-------8-8-8-|-------------|-9-9-9----------|
|-----------|-------------|-5-5-5-9-9-9-|----------------|
  1 2 3 4 &   1  &  2 3 4   1 2 & 3 4 &   1 2 & 3  4  &

|------------|---------|
|-9-9-9-9-11-|---------|
|------------|-7-7-7-7-|
|------------|---------|
  1 2 3 4 &    1 2 3 4

SOLO:

|------------|------------|
|*-7-7-7-r---|-5-r-------*|
|*---------5-|-----5-r-5-*| (x8)
|------------|------------|
   1 2 3 4 &   1 2 3 4 &

LAST CHORUS:
                  (x3)
|----------|----------|---------|-----------------|
|*---------|---------*|---------|-----------------|
|*-------7-|-5-r-----*|-------7-|-5-5-4-4-2-2-0-0-|
|--5-r-----|----------|-5-r-----|-----------------|
   1 2 3 4   1 2 3 4    1 2 3 4   1 & 2 & 3 & 4 &

END:

|------------------|------------------|
|*-----------------|-----------------*|
|*-------------7-7-|-5-5-5-5-5-5-7-7-*| (fade-out)
|--5-5-5-5-5-5-----|------------------|
   1 & 2 & 3 & 4 &   1 & 2 & 3 & 4 & 
            

comments powered by Disqus
↑ Back to top | Bachman Turner Overdrive Bass for You Ain't Seen Nothing Yet. Lyrics for acoustic guitar and electric guitar. Tablatures and chords are parodies/interpretations of the original songs. You may use it for private study, scholarship, research or language learning purposes only