» » »

Bachman Turner Overdrive, Looking Out For Number One Tabs (ver.1)

Artists:  A B C D E F G H I J K L M N O P Q R S T U V W X Y Z # 

Looking Out For Number One Tabs (ver.1)

Bachman Turner Overdrive Tabs
 Rating:
4/5 (4 votes)
Looking Out For Number One lessons Tabs too difficult? Try these video lessons and learn fast
                this is one of my all time favorite songs and is a great guitar song. i am sure this tab 
100% correct and i hope you enjoy it. if you have any questions please e-mail me 

NOTE: the little lick at the end of riff one is not played all the time.

Looking Out For #1 - Bachman-Turner Overdrive

       Riff 1                Riff 2            Riff 3             Riff 4
|--------------------|   |-------------|   |--------------|   |--------------|
|--------------------|   |-------------|   |--------------|   |--------------|
|---2-2-2-2------2---|   |---5-5-5-5---|   |---7-7-77-6---|   |---2-2-22-2---|
|---2-1-0-2----2-----|   |---5-4-3-5---|   |---7-7-66-6---|   |---2-2-11-2---|
|---------0--0-------|   |---------3---|   |--------------|   |----------0---|
|---2-1-0------------|   |---5-4-3-----|   |---7-7-66-5---|   |---2-2-11-----|

          Riff 5
|---0-0--0-0--0-0--11-3---|
|-------------------------|
|---7-6--5-4--3-2--22-4---|
|---7-6--5---------33-5---|
|-------------------------|
|---7-6--5-4--3-2--11-3---|


Intro
Riff 1  X3
Riff 2
Riff 3

Verse One
Riff 5  X2
Riff 1  X3
Riff 4  X2

Fill One
Riff 1  X2
Riff 2
Riff 3

Verse Two
Riff 5  X2
Riff 1  X3
Riff 4  X2

Fill Two
Riff 1  X4\
Riff 2  X4/Played Twice
Riff 1  X4
Riff 2
Riff 3
            
Submit corrections

comments powered by Disqus
↑ Back to top | Bachman Turner Overdrive Tabs for Looking Out For Number One. Lyrics for acoustic guitar and electric guitar. Tablatures and chords are parodies/interpretations of the original songs. You may use it for private study, scholarship, research or language learning purposes only