» » »

Babyshambles, From Bollywood To Battersea Tabs (ver.2)

Artists:  A B C D E F G H I J K L M N O P Q R S T U V W X Y Z # 

From Bollywood To Battersea Tabs (ver.2)

Babyshambles Tabs
 Rating:
4/5 (4 votes)
From Bollywood To Battersea lessons Tabs too difficult? Try these video lessons and learn fast
                 Great song:

Intro: Strum Pattern Down,Up,Up,Up,Up
   
e|-3--3--3--3--0------------------------------|
B|-2--2--1--1--0------------------------------|
G|-3--3--3--3----------x3---------------------|
D|-0------------------------------------------|
A|-0------------------------------------------|
E|--------------------------------------------|


e|--3--3--3--4--5--------------------------------|
B|--3--3--3--4--5--------------------------------|
G|--4--4--4--5--6--------------------------------|
D|--5--5--5--6--7--------------------------------|
A|--5--5--5--6--7--------------------------------|
E|--3--3--3--5--5--------------------------------|

Repeat Intro to these Lyrics : Well it's a long, long way, oooh
Bollywood to Battersea
Bollywood to Battersea
La la la la



Verse: 
D       A            G             A
I was a child of the pound and the crown
D                    A
I lost myself in the haze
       G               A
Of the new life that I found
       D              A G A
On the silver screen

D         A            G              A
She was a child of the movies and the dollar
D                  A    
One fine day I was led astray
    G              A
She took me by the collar
              D           A G A
Said you must follow me

Chorus: Repeat Intro With Lyrics:


Well it's a long, long way, oooh
Bollywood to Battersea

It's a long, long way, oooh
Bollywood to Battersea
Bollywood to Battersea



e|-3--3--3--3--0------------------------------|
B|-2--2--1--1--0------------------------------|
G|-3--3--3--3----------x3---------------------|
D|-0------------------------------------------|
A|-0------------------------------------------|
E|--------------------------------------------|


e|--3--3--3--4--5--------------------------------|
B|--3--3--3--4--5--------------------------------|
G|--4--4--4--5--6--------------------------------|
D|--5--5--5--6--7--------------------------------|
A|--5--5--5--6--7--------------------------------|
E|--3--3--3--5--5--------------------------------|


Verse & Chorus Lyrics for Rest of Song:

Yeah I was a child of the suicide and the leisure
Oh one fine day I was led astray
To a burning collar
Said what's your pleasue

I was born in the four minute warning
My old man said as he shook his head
"Ohhh, f**k this...

Enjoy! & PLEASE RATE!!!!!

Adam
            
Submit corrections

comments powered by Disqus
↑ Back to top | Babyshambles Tabs for From Bollywood To Battersea. Lyrics for acoustic guitar and electric guitar. Tablatures and chords are parodies/interpretations of the original songs. You may use it for private study, scholarship, research or language learning purposes only