» » »

French Dog Blues Chords (ver.3)

Artists:  A B C D E F G H I J K L M N O P Q R S T U V W X Y Z # 

French Dog Blues Chords (ver.3)

Babyshambles
Rating:
5/5 (6 votes)

Hard to play? Try these video lessons and learn fast.
                French Dog Blues From the leeds bootleg


Bass Intro

A|-5-0---5-0---5-0---5-7/9\7--|
E|-----7-----7-----7----------|

Intro guitar
e|-----------------....play for a while 
b|---10-------10-... 
g|---10-------10-.... 
d|---0----12--0--.... 
a|-----------------.... 
e|------------------...... 

______F________________D 
e|----------------------------- 
b|--10-10-10-10--10---10-- 
g|--12b12b12b12b12---10-- repeat for a while 
d|----------------------------- this goes over chords for chorus aswell 
a|---------------------------- 
e|------------------------------ 

 
D 
today is the last post in anarchy 
B 
went across to the park to see, 
F#m(9th fret) B F#,m 
across the road for freee 
G___A___ 
................ 


 
D 
oh no it washes over you 
B 
They call it the french dog blues 

F#m B F#m G A 


 
F______________D 
Its away now i know 

Middle 
D E G A 

See you, you never pay yourself, thats what you pay the shrink for.... 

then hold A 

Any question just ask 
            
Hard to play? Try these video lessons and learn fast. | Correct




comments powered by Disqus
↑ Back to top | Tablatures and chords are parodies/interpretations of the original songs. You may use it for private study, scholarship, research or language learning purposes only