» » »

Babyshambles, Albion Tabs (ver.1)

Artists:  A B C D E F G H I J K L M N O P Q R S T U V W X Y Z # 

Albion Tabs (ver.1)

Babyshambles Tabs
Rating:
5/5 (8 votes)
Albion lessons Tabs too difficult? Try these video lessons and learn fast
                ok the chords are right on the others but just tellin u where to put ur fingers

Intro [Guitar 1] (Acoustic)
   C?  F?  F  Dm   C   G
e|-3---3---0---1---0---3-|
B|-1---1---1---3---1---3-|
G|-0---2---2---2---0---0-|
D|-2---3---3---0---2---0-|
A|-3---------------3---2-|
E|---------------------3-|
x2  On the second time on the Dm guitar 2 plays this

[Guitar 2] (Electric)
e|--1-----0h1-0----------|
B|----3---------3--------|
G|------2---------2------|
D|-----------------------|
A|-----------------------|
E|-----------------------|
Then,it plays normal C, F, C, G (play these for the verse)
and while this plays twice, the second guitar (on the last G) plays

Guitar 2
e|-3------5-3---3---------|
B|---3--------3-----------|
G|-----0------------------| Also, during the verse chords before the verse,
D|------------------------| the acoustic (after the 1st G) play a little riff 
A|------------------------| bit between the g and c it goes......
E|------------------------|

e|------------|
B|------------|
G|------------|
D|-0h2-0------|
A|------------|
E|------------|

The chorus is just F/C/G x2 then G when he says the places (In Albion)

Intro
Intro 2
Verse
Chorus
Verse
Chorus
Chorus
Intro
Intro 2
Finish on C

Pete doherty is innocent!
plz vote and comment
            
Submit corrections

comments powered by Disqus
↑ Back to top | Babyshambles Tabs for Albion. Lyrics for acoustic guitar and electric guitar. Tablatures and chords are parodies/interpretations of the original songs. You may use it for private study, scholarship, research or language learning purposes only