» » »

Babyshambles, Albion Bass tabs (ver.1)

Artists:  A B C D E F G H I J K L M N O P Q R S T U V W X Y Z # 

Albion Bass tabs (ver.1)

Babyshambles Tabs
 Rating:
4/5 (9 votes)
Albion lessons Tabs too difficult? Try these video lessons and learn fast
                -------------------------------------------------------------------------------
-------------------------------------------------------------------------------



Tuning: normal
This is a classic song and a great song for bass written by a great bassist, enjoy
intro/verse x4
pre chorus 1 x2
pre chorus 2 x2
pre chorus 3 x1
chorus x1
intro/verse x2
pre chorus 2 x2
pre chorus 3 x1
pre chorus 2 x2
pre chorus 3 x1
chorus x2

Intro/verse
"down in albion"......
G|-----------------------------------|
D|-----------3--33-5-----------5-----|
A|-3--33-3h5---3----3--3202---5-857--|
E|---3----------------3-----3--------|

Pre chorus 1
"gin in teacups"......
G|-----------------------------------------------------------|
D|----------3-3-----------555-575-------------------------5--|
A|-3--33-3h5-3---2-3-3202--------57-lead-into-next-bit-on----|
E|---3---------35---3----------------------------------------|

Pre Chorus 2
"if your looking for"......
G|--2---2-------------------------------------------------------------------------------|
D|-3-333-3-----55532--------------------------------------------------------------------|
A|--------3-33--------------------------------------------------------------------------|
E|--------------------------------------------------------------------------------------|

Pre Chorus 3
"so come away"......
G|----------------------7----------------------------------------------------------------------|
D|3---5-5-55--5-5-55-7h9-5-5-55-------------------------------------------------------------7--|
A|--3----3---3---3----------3---3--------------------------------------------------------------|
E|---------------------------------------------------------------------------------------------|

Fill just before chorus
G|---------------------------------------------------------------------------------------|
D|-----5---------------------------------------------------------------------------------|
A|---57-7875-57--------------------------------------------------------------------------|
E|-37-------8----------------------------------------------------------------------------|

Chorus
"Anywhere in Albion"
G|-------------------------------------|
D|------------3-3-333--------77775555--|
A|-3-3-333-3h5-------5-555555----------|
E|-------------------------------------|
            
Submit corrections

comments powered by Disqus
↑ Back to top | Babyshambles Bass for Albion. Lyrics for acoustic guitar and electric guitar. Tablatures and chords are parodies/interpretations of the original songs. You may use it for private study, scholarship, research or language learning purposes only