» » »

Why Tabs (ver.1)

Artists:  A B C D E F G H I J K L M N O P Q R S T U V W X Y Z # 

Why Tabs (ver.1)

Avril Lavigne
Rating:
0/5 (0 votes)

Hard to play? Try these video lessons and learn fast.
                Hi! I’m Paul of Chevalier School.. This is my first time to submit a tab so I hope you’ll enjoy it.
This song is palm-muted most of the time and there are times bass are strum first before strumming
it with the treble, so do it with style. On the last chorus, play some slides. Pardon me if you
would find errors in my tabs. Anyway, I'm just a beginner in tabbing songs. Any comments,
Peace!:-)

INTRO
----- 

 e|---2------2---| 
 B|---5------5---| 
 G|---4------4---| 2x
 D|---2------2---| 
 A|---2------0---| 
 E|---x------x---| 


VERSE
----- 

 e|---2---2---2--------------x-------| 
 B|---5---5---5--------------4-------| 
 G|---4---4---4--------------4-------|
 D|---2---2---2--------------x-------| 
 A|---2---0---2--------------2-------| 
 E|---x---x---x--------------x-------|
       Why,    do you always do this to me?

 e|---2---2---2-----------------x-------| 
 B|---5---5---5-----------------5-------| 
 G|---4---4---4-----------------4-------|
 D|---2---2---2-----------------4-------| 
 A|---2---0---2-----------------2-------| 
 E|---x---x---x-----------------x-------|
       Why,    couldn't you just see through me?

 e|---2---2------2--------------------------x-------| 
 B|---5---5------5--------------------------4-------| 
 G|---4---4------4--------------------------4-------|
 D|---2---2------2--------------------------x-------| 
 A|---2---0------2--------------------------2-------| 
 E|---x---x------x--------------------------x-------|
       How come, you act like this like you just don't care at all

 e|---2---x----2----------------x-----------------x----| 
 B|---5---5----5----------------5-----------------5----| 
 G|---4---4----4----------------4-----------------4----|
 D|---2---x----2----------------x-----------------4----| 
 A|---2---x----0----------------x-----------------2----| 
 E|---x---4----x----------------4-----------------x----|
          Do   you expect me to believe I was the only one to fall?


PRE-CHORUS
----------

 e|--0----------------------0----------------0-------------------0-----| 
 B|--0----------------------0----------------0-------------------0-----| 
 G|--2----------------------4----------------2-------------------4-----|
 D|--2----------------------4----------------2-------------------4-----| 
 A|--0----------------------2----------------0-------------------2-----| 
 E|--x----------------------4----------------2-------------------x-----|
      I could feel  I could feel you near me, even though you're far away

 e|--0----------------------0--------------0---| 
 B|--0----------------------0--------------0---| 
 G|--2----------------------4--------------2---|
 D|--2----------------------4--------------2---| 
 A|--0----------------------2--------------0---| 
 E|--x----------------------4--------------2---|
      I could feel I could  feel you baby, why

 
CHORUS
------

 e|---0---------------------0------| 
 B|---0---------------------0------| 
 G|---9---------------------9------|
 D|---9---------------------9------| 
 A|---7---------------------6------| 
 E|---X---------------------x------|
       It's not supposed to hurt this way

 e|--0-------------0-------0-----------------0--| 
 B|--0-------------0-------0-----------------0--| 
 G|--6-------------4-------2-----------------4--|
 D|--6-------------4-------2-----------------4--| 
 A|--4-------------2-------0-----------------2--| 
 E|--x-------------x-------x-----------------x--|
   I need you, I need you more and more each day

 e|---0---------------------0------| 
 B|---0---------------------0------| 
 G|---9---------------------9------|
 D|---9---------------------9------| 
 A|---7---------------------6------| 
 E|---X---------------------x------|
       It's not supposed to feel this way

 e|--0-------------0----------0-----------------0--| 
 B|--0-------------0----------0-----------------0--| 
 G|--6-------------4----------2-----------------4--|
 D|--6-------------4----------2-----------------4--| 
 A|--4-------------2----------0-----------------2--| 
 E|--x-------------x----------x-----------------x--|
   I need you, I need you, I need you          Tell me,

 e|--0------------------------0----| 
 B|--0------------------------0----| 
 G|--6------------------------4----|
 D|--6------------------------4----| 
 A|--4------------------------4----| 
 E|--x------------------------x----|
       are you and me still together? Tell me, 

 e|--0------------------------------0----| 
 B|--0------------------------------0----| 
 G|--6------------------------------4----|
 D|--6------------------------------4----| 
 A|--4------------------------------4----| 
 E|--x------------------------------x----|
       do you think we could last forever? Tell me, 

 e|---0-----0---| 
 B|---0-----0---| 
 G|---2-----4---|
 D----2-----4---| 
 A|---0-----2---| 
 E|---x-----x---|
              why

INTRO

VERSE

PRE-CHORUS

CHORUS


BRIDGE
------ 

 e|--x-----------------------2-----| 
 B|--2-----------------------4-----| 
 G|--2-----------------------4-----|
 D|--2-----------------------4-----| 
 A|--4-----------------------2-----| 
 E|--x-----------------------x-----|
      So go and think about whatever you need to think about

 e|----------4--------------------| 
 B|----------5--------------------| 
 G|----------4--------------------|
 D|----------6--------------------| 
 A|----------4--------------------| 
 E|----------x--------------------|
Go ahead and dream about whatever you need to dream about

 e|--0-----------------------------0------------------0--------0---------| 
 B|--0-----------------------------0------------------0--------0---------| 
 G|--7-----------------------------6------------------5--------4---------|
 D|--7-----------------------------6------------------5--------4---------| 
 A|--5-----------------------------4------------------3--------2---------| 
 E|--x-----------------------------x------------------x--------x---------|
      And come back to me when you know just how you feel, you feel

PRE-CHORUS

CHORUS

LAST CHORUS:(2 frets higher)
---------------------------- 

 e|--x---------------------x-------| 
 B|--x---------------------x-------| 
 G|--11--------------------11------|
 D|--11--------------------11------| 
 A|--9---------------------8-------| 
 E|--x---------------------x-------|
      It's not supposed to hurt this way

 e|--x------------x---------------| 
 B|--x------------x---------------| 
 G|--8------------6---------------|
 D|--8------------6---------------| 
 A|--6------------4---------------| 
 E|--x------------x---------------|
   I need you, I need you

 e|--x------------------x----------| 
 B|--x------------------x----------| 
 G|--4------------------6----------|
 D|--4------------------6----------| 
 A|--2------------------4----------| 
 E|--x------------------x----------|
     More and more each day

 e|--x---------------------x-------| 
 B|--x---------------------x-------| 
 G|--11--------------------11------|
 D|--11--------------------11------| 
 A|--9---------------------8-------| 
 E|--x---------------------x-------|
      It's not supposed to feel this way
 e|--x------------x---------------| 
 B|--x------------x---------------| 
 G|--8------------6---------------|
 D|--8------------6---------------| 
 A|--6------------4---------------| 
 E|--x------------x---------------|
   I need you, I need you, 

 e|--x------------------x----------| 
 B|--x------------------x----------| 
 G|--4------------------6----------|
 D|--4------------------6----------| 
 A|--2------------------4----------| 
 E|--x------------------x----------|
   I need you           Tell me

 e|--x------------------------x----| 
 B|--x------------------------x----| 
 G|--8------------------------6----|
 D|--8------------------------6----| 
 A|--6------------------------6----| 
 E|--x------------------------x----|
       are you and me still together? Tell me,

 e|--x-----------------------------x----| 
 B|--x-----------------------------x----| 
 G|--8-----------------------------6----|
 D|--8-----------------------------6----| 
 A|--6-----------------------------6----| 
 E|--x-----------------------------x----|
      do you think we could last forever? Tell me,

 e|--x-----x---| 
 B|--x-----x---| 
 G|--4-----6---|
 D|--4-----6---| 
 A|--2-----4---| 
 E|--x-----x---|
             why
            
Hard to play? Try these video lessons and learn fast. | Correct




comments powered by Disqus
↑ Back to top | Tablatures and chords are parodies/interpretations of the original songs. You may use it for private study, scholarship, research or language learning purposes only