» » »

Avril Lavigne, Unwanted Tabs (ver.3)

Artists:  A B C D E F G H I J K L M N O P Q R S T U V W X Y Z # 

Unwanted Tabs (ver.3)

Avril Lavigne Tabs
 Rating:
4/5 (4 votes)
Unwanted lessons Tabs too difficult? Try these video lessons and learn fast
1
                Tuning: Standard
. = Palm Muted

This is a really easy rockin’ song to play. So have fun.

Chords - E5 C5 D5 D5 - O47XXX

e|-------------------------------|
B|-------------------------------|
G|-------------------------------|
D|---2-2-2--5-5-5--7-7-7---------|
A|---2-2-2--3-3-3--5-5-5--7-7-7--|
E|---0-0-0----------------5-5-5--|

If you don’t think its correct you can try my other way of doing it,

e|-------------------------------|
B|-------------------------------|
G|-------------------------------|
D|---2-2-2--5-5-5--7-7-7---------|
A|---2-2-2--3-3-3--5-5-5--7-7-7--|
E|---0-0-0----------------5-5-5--|
                            . .

My first tab, so give me a rating, have fun with it. I may play it a little harder then them but it pretty much sounds could however you play it.
            
Submit corrections

comments powered by Disqus
↑ Back to top | Avril Lavigne Tabs for Unwanted. Lyrics for acoustic guitar and electric guitar. 1 Tablatures and chords are parodies/interpretations of the original songs. You may use it for private study, scholarship, research or language learning purposes only