» » »

Together Bass tabs (ver.1)

Artists:  A B C D E F G H I J K L M N O P Q R S T U V W X Y Z # 

Together Bass tabs (ver.1)

Avril Lavigne
Rating:
0/5 (0 votes)

Hard to play? Try these video lessons and learn fast.
                Avril Lavigne
Together
Under my skin
2004 Arista/BMG

Bassist: Charlie Moniz

There are 2 ways to play this song. It's either a 5 string bass in a standard tuning 
or a 4 string bass in a dropped C tuning like CGCF.

a.) 5 string bass
tuning: BEADG

Verse:

G|-------|--------|
D|-------|--------|
A|-------|-1------|
E|-------|----1---| (x2)
B|-4--1--|--------|

Refrain:

G|-------------------------|
D|-------------------------|
A|-------------------------| (x2)
E|-3--3--------6--6--------|
B|-------4--4--------6--6--|

Chorus: pluck the strings fast

G|------------------------------------|
D|------------------------------------|
A|------------------------------------|
E|-1-3-3-3--1-3-3-3-------------------|
B|-------------------2-4-4-4--2-4-4-4-|

G|------------------------------------------|
D|------------------------------------------|
A|------------------------------------------|
E|-6-6-6-6--4-6-6-6-------------------------|
B|-------------------6-6-6-6--4-6-6-6-------|

"Hands will fall"

G|----------------------|
D|----------------------|
A|----------------------|
E|-6-6-6-6--4-6-6-6-----|
B|-------------------6--|

Bridge: "My heart is broken..."

G|-----------|
D|-----------|
A|-----------|
E|-----------|
B|-4--6--8---|


b.) 4 string bass
tuning: CGCF


Verse:


F|-------|--------|
C|-------|--------|
G|-------|-3------| (x2)
C|-3--0--|----5---|


Refrain:

F|-------------------------|
C|-------------------------|
G|-0--0--------3--3--------| (x2)
C|-------3--3--------5--5--|

Chorus: pluck the strings fast


F|------------------------------------|
C|------------------------------------|
G|------------------------------------|
C|-5-7-7-7--5-7-7-7--1-3-3-3--1-3-3-3-|

F|------------------------------------------|
c|------------------------------------------|
G|-3-3-3-3--1-3-3-3-------------------------|
C|-------------------5-5-5-5--3-5-5-5-------|

"Hands will fall"

F|---------------------|
C|---------------------|
G|-3-3-3-3--1-3-3-3----|
C|-------------------5-|

Bridge: "My heart is broken..."

F|-----------|
C|-----------|
G|-----------|
C|-3--5--7---|
            
Hard to play? Try these video lessons and learn fast. | Correct




comments powered by Disqus
↑ Back to top | Tablatures and chords are parodies/interpretations of the original songs. You may use it for private study, scholarship, research or language learning purposes only