» » »

Avril Lavigne, Together Tabs (ver.1)

Artists:  A B C D E F G H I J K L M N O P Q R S T U V W X Y Z # 

Together Tabs (ver.1)

Avril Lavigne Tabs
 Rating:
4/5 (4 votes)
Together lessons Tabs too difficult? Try these video lessons and learn fast
1
                Avril Lavigne
Under my Skin
2004 Arista/BMG


Hey dudes/chicks!!!! I tab this song for you. The piano intro is very difficult to
predict and I did it for 2 days. There are 4 players for tabbing this song. The piano
intro is both done by Avril and Chantal Kreviazuk. It's your decision which of their
tabs is accurate for you. And also 2 guitars, 1 for Devin and 1 for Craig. Then the
extra keyboard. This is 95% correct.

Instrument tunings

Avril Lavigne/Chantal Kreviazuk - piano tuning: CGCFAD
Devin - lead guitar tuning: D#-G#-C#-F#-A#-D#
Craig - Rhythm guitar  tuning: same as Devin
Extra Keyboard tuning: standard EADGBe


speed in Guitar pro 4 = 85


Avril's Version

Piano intro/Verses: D#1-A#1-D#2-G2-A#2-D3-A#2-G2--| 3x
             C1-G1-D#2-G2-A#2-D3-A#2--------------|G2

then A#1-D2-F2-A#2-D3-D#3-A#2-G2-F1-A1-C2-F2-A2-D2-A2-F2

D|-----------0---------------0-----|
A|---------1---1-----------1---1---|
F|-------2-------2-------2-------2-|
C|-----3---------------3-----------| (x3)
G|---3---------------0-------------|
C|-3---------------0---------------|

D|---------0-1---------------------|
A|-------------1-------------5-----|
F|-------5-------2---------4---4---|
C|---2-5-----------------5-------5-|
G|-3-----------------2-5-----------|
C|-----------------5---------------|


And this is Chantal's Version(UMS album)


Piano Intro/Verses: D#1-A#1-D#2-G2-A#2-D3-A#2-G2--| 3x
             C1-G1-D#2-G2-A#2-D3-D2---------------|D3

then A#1-D2-F2-A#2-D3-D#3-A#2-G2-F1-A1-C2-F2-F3-D3-D2-D3

D|-----------0---------------0---0-|
A|---------1---1-----------1-------|
F|-------2-------2-------2---------|
C|-----3---------------3-------2---| (x3)
G|---3---------------0-------------|
C|-3---------------0---------------|

D|---------0-1-------------3-0---0-|
A|-------------1-------------------|
F|-------5-------2-----------------|
C|---2-5-----------------5-----2---|
G|-3-----------------2-5-----------|
C|-----------------5---------------|

then refrain & chorus:

D|----------|
A|----------|
F|-----5----|
C|-7-3-5-5--|
G|-7-3-3-5--| (x2)
C|-7-3---5--|

then bridge: "my heart is broken"

D|------------|
A|------------|
F|------------|
C|-10--12-14--| (x6)
G|--8--10-12--|
C|------------|


Craig: Intro: Idle

Refrain: "When I'm alone now"

D#|-------------------------|
A#|-------------------------|
F#|-----------4-4-----------|
C#|-6-6--2-2--4-4--4-4------| (x2)
G#|-6-6--2-2--2-2--4-4------|
D#|-4-4--0-0--2-2--2-2------|

Chorus: Same as chorus


Devin: Intro: Idle

Refrain: "When I'm alone now"

D#|-----------------------------|
A#|-----------------------------|
F#|-15-15--16-16--16-16--15-15--|
C#|--x--x---x--x---x--x---x--x--| (x2)
G#|-13-13--14-14--14-14--13-13--|
D#|-----------------------------|

Chorus:

D#|-----------------------------|
A#|-----------------------------|
F#|---------------4(x8)---------|
C#|-6(x8)--2(x8)--4(x8)--4(x8)--| (x2)
G#|-6(x8)--2(x8)--2(x8)--4(x8)--|
D#|-4(x8)--0(x8)--2(x8)--2(x8)--|


Post Chorus: (at first only after while Av is playing the piano intro)

D#|-------------11-12-------------------14-11----11-|
A#|-------------------12----------------------------|
F#|----------16----------13-------------------------|
C#|----13-16-------------------------16-------13----|
G#|-14-------------------------13-16----------------|
D#|-------------------------14----------------------|

Extra Keyboard (Feedbacker)

Intro/Verses:

   (x3)
E|------|-------|
B|------|-------|
G|-7--7-|-7--3--| (x2)
D|-8--8-|-8--3--|
A|-6----|-------|
E|----8-|-6--1--|

"when I'm around you I don't feel.."

E|--16~-|
B|------|
G|------|
D|------|
A|------|
E|------|

Chorus: "Hands will fall"

E|-13~--
B|--x~--
G|-10~--
D|------|
A|------|
E|------|
            
Submit corrections

comments powered by Disqus
↑ Back to top | Avril Lavigne Tabs for Together. Lyrics for acoustic guitar and electric guitar. 1 Tablatures and chords are parodies/interpretations of the original songs. You may use it for private study, scholarship, research or language learning purposes only