» » »

Temple Of Life Chords (ver.2)

Artists:  A B C D E F G H I J K L M N O P Q R S T U V W X Y Z # 

Temple Of Life Chords (ver.2)

Avril Lavigne
Rating:
0/5 (0 votes)

Hard to play? Try these video lessons and learn fast.
                Avril Lavigne - Temple Of Life (Gospel Tune, 2000.)

This is one beautiful song from Avril Lavigne before 
she got famous... This high-quality gosplel has
acoustic guitar, electic guitar, piano, sax and drums...
Definetly her best song till now! Enjoy!
Please note that this tabs aren't 100% correct, and if you
have any suggestions and corrections please contact me.


C  - x32010  G  - 320003
C7 - x32310  E  - 022100 
F  - 133211  Dm - xx0231
Fm - 133111  Am - x02210


 C
|--------------------------------------|
|-------1------------------------------|
|-----0--------------------------------|
|---2----------------------------------|
|-3------------------------------------|
|--------------------------------------|

C E F C G

              C
We sat by the fire
          E
United in song
          F
Under the moonlight
          Fm
All night long
             C       Dm
We sang 'Halleluyah'
                  C    G
For the joy of it all



SAME CHORDS HERE, BUT WITH PICKING:

  C                      E
|-------0----------0-----------0----------0-------|
|---------1----------1-----------0----------0-----|
|-----0-----0-----0----0-----1-----1-----1----1---|
|---2-----------2----------2-----------2----------|
|-3-----------3----------2-----------2------------|
|-------------------------------------------------|

  F                        Fm
|-------1------------1-----------1-----------1----|
|---------1------------1-----------1-----------1--|
|-----2-----2----2-------2-----1-----1-----1-----1|
|---3----------3-------------3-----------3--------|
|-3----------3-------------3-----------3----------|
|-------------------------------------------------|

  C           Dm          C           G
|-------0-----------1-----------0-----------3-----|
|---------1-------3---3-----------1-----------0---|
|-----0-----0---2-------2-----0-----0-----0-----0-|
|---2---------0-------------2-----------0---------|
|-3-----------------------3-----------2-----------|
|-------------------------------------------------|
                                                  
               C
And out on the water
           E
A caroling loon
           F
Sings us a sweet
          Fm
Heavenly tune
                   C         Dm
There's peace in Gods forest
               C    G
The temple of life


(CHORUS)

C    C7 F
Halleluyah
C    Am G
Halleluyah
E 
We looked to the sky
     Am   G        F
Deep into heaven's eyes
     Fm   C  G 
Halleluyah

(GUITAR SOLO)

C--E--F--Fm--C-Dm-C-G  (x2)

e|------------------------------------------------------|
B|------------------------------------------------------|
G|-----5-7-7b9-7b9---12-9-7-5---5-7---12-12-9-7-5-3-3-5-|
D|-5/7------------------------7-------------------------|
A|------------------------------------------------------|
E|------------------------------------------------------|

|------------------------------------------------------|
|------------------------------------------------------|
|-5-5-7-7\8-8-8-7-8--------------------------9-7--7-7-9|
|-----------------------------------------10-----------|
|-----------------------------------9~--9--------------|
|------------------------9\11-11-11--------------------|

|-------11-11-11-10---|
|---------------------|
|-9\12----------------|
|---------------------|
|---------------------|
|---------------------|


(SAME CHORDS AS BEFORE AND SOME NICE ELECTRIC GUITAR PICKING IN BETWEEN...)

And back in the city
I'm losing control
I need a place
To ease my soul

There's peace in God's temple
The temple of life

(CHORUS)
Halleluyah
Halleluyah
We looked to the sky
Deep into heaven's eyes
Halleluyah

Halleluyah
Halleluyah
We looked to the sky
Deep into heaven's eyes
Halleluyah

Halleluyah
Halleluyah
We looked to the sky
Deep into heaven's eyes
Halleluyah

Thank you jesus
we praise your name
thank you lord
Halleluyah 
----------------------------------------------------------
            
Hard to play? Try these video lessons and learn fast. | Correct




comments powered by Disqus
↑ Back to top | Tablatures and chords are parodies/interpretations of the original songs. You may use it for private study, scholarship, research or language learning purposes only