» » »

Naked Tabs (ver.3)

Artists:  A B C D E F G H I J K L M N O P Q R S T U V W X Y Z # 

Naked Tabs (ver.3)

Avril Lavigne
Rating:
0/5 (0 votes)
Tabs too difficult? Try these video lessons and learn fast.
                Avril Lavigne - Naked

Standard tuning

Verse:     
e|---0---0---0---|---0-------------|
B|---0---3---1---|---0-------------|
G|---x---2---0---|---2-------------|
D|---9---0---2---|---2-------------|
A|---7-------3---|---0-------------|
E|---0-----------|-----------------|
            ...how I feel inside...

Chorus:
e|---3-----0-------2------0------0------0----------|
B|---0-----1-------3------0------0------1----------|
G|---0-----0-------4------2------0------0----------|
D|---0-----2-------4------2------2------2----------|
A|---2-----3-------2------0------2------3----------|
E|---3---------------------------0-----------------|
  ...never felt....this before...naked...does it show?...

These two parts are repeated for the rest of the songs...just listen to it... 
I'm going to tab even the electric guitar part....have patience! bye
            
Tabs too difficult? Try these video lessons and learn fast.


comments powered by Disqus
↑ Back to top | Tablatures and chords are parodies/interpretations of the original songs. You may use it for private study, scholarship, research or language learning purposes only