» » »

Innocence Bass tabs (ver.1)

Artists:  A B C D E F G H I J K L M N O P Q R S T U V W X Y Z # 

Innocence Bass tabs (ver.1)

Avril Lavigne
Rating:
0/5 (0 votes)

Hard to play? Try these video lessons and learn fast.
                Avril Lavigne
Innocence
The Best Damn Thing
2007 RCA Records

Bass Tab:

Tuning: Standard EADG


Post Chorus: while doing the piano
G|-------|
D|-------|
A|-4---0-| (x2)
E|-------|


Verse 2:
G|-------|
D|-------|
A|-4---0-| (x2)
E|-------|


Refrain:
G|-----------4---4-------------------------------------------------|
D|---------4---4-----------4-2-1-2-----------1-2-1---2---2---------|
A|-2-2-2-2---------0-0-0-0---------2-2-2-2-2-------0---0---0-0-2-2-|
E|-----------------------------------------------------------------|


Chorus:
G|---------------------1-------------------------------------------|
D|-----------------2-2---2-----4-1---------------------------------|
A|-4-4-4-4-0-0-0-0---------2-2-----4-4-4-4-0-0-0-0---------2-2-2-2-|
E|-------------------------------------------------0-0-0-0---------|
then
G|---------------------1-------------------------------------------|
D|-----------------2-2---2-----4-1---------------------------------|
A|-4-4-4-4-0-0-0-0---------2-2-----0-0-0-0-0-0-0-0-2-2-2-2-2-2-2-2-|
E|-----------------------------------------------------------------|


Bridge: It's a state
G|-------------------------------------------1---1---------------------------------|
D|-----2-1-4-2-----------------4-2-1-4-----2---2---------------------------4-2-1-2-|
A|-0-0-------------4-2-7---2-2---------4-4---------0-0-0-0-7-7-7-7-2-2-2-2---------| (x2)
E|-------------0-0-------0---------------------------------------------------------|
then

It's so beautiful...
G|---------|
D|---------|
A|-2(hold)-
E|---------


Final Chorus:
G|---------------------1---------------------------------6-9-8-6------|
D|-----------------2-2---2-----4-1-----------------6-7-9---------9----|
A|-4-4-4-4-0-0-0-0---------2-2-----4-4-4-4-0-0-0-0--------------------|
E|--------------------------------------------------------------------|
then                                                                |-(x2)
G|---------------------1----------------------------------------------|
D|-----------------2-2---2-----4-1------------------------------------|
A|-4-4-4-4-0-0-0-0---------2-2-----0-0-0-0-0-0-0-0-2-2-2-2-2-2-3-3----|
E|--------------------------------------------------------------------|


Outro:
G|-----------------------|
D|----1h2-1h2----1h2-1h2-|
A|-4----------0----------| (x4)
E|-----------------------|
            
Hard to play? Try these video lessons and learn fast. | Correct




comments powered by Disqus
↑ Back to top | Tablatures and chords are parodies/interpretations of the original songs. You may use it for private study, scholarship, research or language learning purposes only