» » »

Avril Lavigne, Fuel Tabs (ver.2)

Artists:  A B C D E F G H I J K L M N O P Q R S T U V W X Y Z # 

Fuel Tabs (ver.2)

Avril Lavigne Tabs
 Rating:
4/5 (4 votes)
Fuel lessons Tabs too difficult? Try these video lessons and learn fast
                the song is the same as the metallica version except for the solo, so that´s why i
only post the solo, if u want the rest just do a search on metallica and u´ll see like 15 or more versions of this song

this is before the solo starts, just in case u dont get lost while u r playin

|----------------------------------------------------------------|
|----------------------------------------------------------------|
|-14-14-14-12~-------------12-----14-14-14-12~-------------12~~~-|
|----------------14--12h14----14-----------------14--12h14-------|
|----------------------------------------------------------------|
|----------------------------------------------------------------|


|--------------------------------------------------------------------------|
|-----------------------------------------------------------------15-15-15-|
|-14-14-14-12~--------------14-14-14-12~-------------14b-14b-14b-----------|
|----------------14--12h14-----------------14--12h14-----------------------|
|--------------------------------------------------------------------------|
|--------------------------------------------------------------------------|


SOLO
|-12---12-----------12b---15b^--15-14-15-14--------------------------------------|
|-15b^-15b^~~~-15b--15b--------------------15---15--------15b-15b--15-12----12---|
|--------------------------------------------14----14-14-----------------15----15|
|--------------------------------------------------------------------------------|
|--------------------------------------------------------------------------------|
|--------------------------------------------------------------------------------|

|-------------------------------------------------------------------------------------|
|------------------------------------------12b-12b-12b---15b--15b--15b--15b--15b--15b-|
|-12-14-12----------12----12-14-12---------14b-14b-14b---14b--14b--14b--14b--14b--14b-|
|----------14-12-14----14-----------14-12---------------------------------------------|
|-------------------------------------------------------------------------------------|
|-------------------------------------------------------------------------------------|

|------------------------------|
|-15b--15b--15b--15b--15b--15b-|
|-14b--14b--14b--14b--14b--14b-|
|------------------------------|
|------------------------------|
|------------------------------|
            
Submit corrections

comments powered by Disqus
↑ Back to top | Avril Lavigne Tabs for Fuel. Lyrics for acoustic guitar and electric guitar. Tablatures and chords are parodies/interpretations of the original songs. You may use it for private study, scholarship, research or language learning purposes only