» » »

Avril Lavigne, Bitchin Summer Tabs (ver.1)

Artists:  A B C D E F G H I J K L M N O P Q R S T U V W X Y Z # 

Bitchin Summer Tabs (ver.1)

Avril Lavigne Tabs
 Rating:
4/5 (4 votes)
Bitchin Summer lessons Tabs too difficult? Try these video lessons and learn fast
1
                ----------------------------
----------------------------

Hey guys this is my first tab! None of the tabs had the picking 
part so i thought i'd add it. Listen to the song to get the 
picking pattern, its fairly simple. 
Credit to @hitoriyuuki for the chords!

p=pull off
h=hammer down
~=let ring

CAPO ON 1


Intro:

e-------------------------------------------------------------------|
B---------------------------------------------0h1p0-----------------|
G--------0--------------0----------0-----------------0--------------|
D-------3-------------2--------0h2----------------------------------|  
A------3------3-3-3-3--------0--------------------------------------|
E-----1---------------------------------3-3-3-----------------------|

e-------------------------------------------------------------------|
B---------------------------------------------0h1-------------------|
G--------0--------------0----------0--------------------------------|
D-------3-------------2--------0h2----------------------------------|  
A------3------3-3-3-3--------0--------------------------------------|
E-----1---------------------------------3-3-3-----------------------|
uh oh oh oh 
uh oh oh

Verse:
e-------------------------------------------------------------------|
B---------------------------------------------0h1p0-----------------|
G--------0--------------0----------0-----------------0--------------|
D-------3-------------2--------0h2----------------------------------|  
A------3------3-3-3-3--------0--------------------------------------|
E-----1---------------------------------3-3-3-----------------------|
                                                                       x2
e-------------------------------------------------------------------|
B---------------------------------------------0h1-------------------|
G--------0--------------0----------0--------------------------------|
D-------3-------------2--------0h2----------------------------------|  
A------3------3-3-3-3--------0--------------------------------------|
E-----1---------------------------------3-3-3-----------------------|
Everyone is waiting on the bell (on the bell) 
A couple seconds we'll be raising hell (raising hell)
The sun is shining down, the school is finally out
Nothing matters so we might as well (might as well)


e-------------------------------------------------------------------|
B---------------------------------------------0h1p0-----------------|
G--------0--------------0----------0-----------------0--------------|
D-------3-------------2--------0h2----------------------------------|  
A------3------3-3-3-3--------0--------------------------------------|
E-----1---------------------------------3-3-3-----------------------|
Everybody's baking in the sun
Come and party do it while we're young

e-------------------------------------------------------------------|
B-------------------------------------------------------------------|
G--------0--------------0----------0--------------------------------|
D-------3-------------2--------0h2----------------------------------|  
A------3------3-3-3-3--------0--------------------------------------|
E-----1---------------------------------3~--------------------------|
Move your body when you hear the drum
So put your hands up

Chorus: (F,C,Am,G)
                   F       C
It's gonna be a b**chin' summer
  Am                     G
We'll be living fast kicking ass together
        F       C    
like high school lovebirds
  Am                 G
Gonna have a blast make it last forever

        F          C    
I'll pick you up at the liquor store
  Am                     G
Hurry up we can fit one more
      F       C
It's now or never
      Am                   G *mute*
It's gonna gonna be be a b**chin' summer

   F     C    Am       G
Oh oh oh oh, oh oh oh, b**chin' summer
   F     C    Am       G *mute*
Oh oh oh oh, oh oh oh, b**chin' summer


Repeat Chords for Rest of the song or continue same picking pattern:

Throwing empty bottles in the fire
Whiskey's got us singing like a choir
We're all gonna run when the police come
But in the moment we are so alive

Everybody's baking in the sun
Come and party do it while we're young
Move your body when you hear the drum
So put your hands up

It's gonna be a b**chin' summer
We'll be living fast, kickin' ass together
Like high school lovebirds
Gonna have a blast make it last forever

I'll pick you up at the liquor store
Hurry up we can fit one more
It's now or never
It's gonna gonna be be a b**chin' summer

Oh oh oh oh oh oh oh
b**chin' summer
Oh oh oh oh oh oh oh
b**chin' summer

(Bridge)
Right here at the beach, the party don't stop
If we don't get harassed by the motherf**kin' cops
A quarter tank of gas, About half a pack
My cellphone's dying but there’s no turning back
I can feel the breeze steering with on my knee
Drummin' on the dashboard, bumpin' to the beat
Hit the windshield wiper, searching for my lighter
I gotta get right before this all nighter

Chorus:
It's gonna be a b**chin' summer
We'll be living fast, kickin' ass together
Like high school lovers
Gonna have a blast, make it last more ever
I'll pick you up at the liquor store
Pour it up and you get one more
It's now or never
It's gonna gonna be be a b**chin' summer

Oh oh oh oh oh oh oh
b**chin' summer
Oh oh oh oh oh oh oh
b**chin' summer

Pick you up at the liquor store
Hurry up we can fit one more
It's now or never
It's gonna gonna be be a b**chin' summer
            
Submit corrections

comments powered by Disqus
↑ Back to top | Avril Lavigne Tabs for Bitchin Summer. Lyrics for acoustic guitar and electric guitar. 1 Tablatures and chords are parodies/interpretations of the original songs. You may use it for private study, scholarship, research or language learning purposes only