» » »

Autolux, Here Comes Everybody Tabs (ver.2)

Artists:  A B C D E F G H I J K L M N O P Q R S T U V W X Y Z # 

Here Comes Everybody Tabs (ver.2)

Autolux Tabs
 Rating:
3.4/5 (5 votes)
Here Comes Everybody lessons Tabs too difficult? Try these video lessons and learn fast
1
                Here Comes Everybody
Tuning: standard

These are the chords played.  The first row is played during the verse, second during
chorus.

     C        Eb
e|---3--------3-------3-------|
B|---5--------4-------6-------|
G|---5--------3-------3-------|
D|---5—(x16)--5-(x7)--5-(x9)--|
A|---3--------6-------6-------|
E|---3--------3-------3-------|

     C        Eb      Ab      Eb       Db
e|---3--------3-------4------------------------|
B|---5--------4-------4-------8--------6-------|
G|---5--------3-------5-------8--------6-------|
D|---5—(x8)---5-(x8)--6-(x7)--8-(x5)---6-(x4)--|
A|---3--------6-------6-------6--------4-------|
E|---3--------3-------4------------------------|


The song can also be played with a capo round the third fret:

     A        C
e|---0--------0-------0-------|
B|---2--------1-------3-------|
G|---2--------0-------0-------|
D|---2—(x16)--2-(x7)--2-(x9)--|
A|---0--------3-------3-------|
E|---0--------0-------0-------|

     A        C       F       C        Bb
e|---0--------0-------1------------------------|
B|---2--------1-------1-------5--------3-------|
G|---2--------0-------2-------5--------3-------|
D|---2—(x8)---2-(x8)--3-(x7)--5-(x5)---3-(x4)--|
A|---0--------3-------3-------3--------1-------|
E|---0--------0-------1------------------------|


Either way sounds good, they have some songs in Eb tuning and that tuning works for this 
too.  The note in the beginning is D (just sliding from one octave to another).
            
Submit corrections

comments powered by Disqus
↑ Back to top | Autolux Tabs for Here Comes Everybody. Lyrics for acoustic guitar and electric guitar. 1 Tablatures and chords are parodies/interpretations of the original songs. You may use it for private study, scholarship, research or language learning purposes only