» » »

Asleep At The Trigger Tabs (ver.1)

Artists:  A B C D E F G H I J K L M N O P Q R S T U V W X Y Z # 

Asleep At The Trigger Tabs (ver.1)

Autolux
Rating:
5/5 (2 votes)

Tabs too difficult? Try these video lessons and learn fast.
                ASLEEP AT THE TRIGGER


Tuned down 1/2 step


Intro/Verse

Guitar 1
eb|-----------------|------------------|----------------|------------------|----------------|
Bb|-----------------|------------------|----------------|------------------|----------------|
Gb|-----------------|------------------|----------------|------------------|----------------|
Db|-----------------|------------------|---------11-----|------------------|---------11-----|
Ab|-----------------|-9-11--9-11--9-11-|---9-11---------|-9-11--9-11--9-11-|---9-11---------|
Eb|-----------------|-0-0---0-0---0-0--|---0-0---10-----|-0-0---0-0---0-0--|---0-0---10-----|

Guitar 2
eb|-----------------|------------------|----------------|------------------|----------------|
Bb|-----------------|------------------|----------------|------------------|----------------|
Gb|-----------------|------------------|----------------|------------------|----------------|
Db|---------9-------|------------------|---------9------|------------------|---------9------|
Ab|------11---------|------------------|------11--------|------------------|------11--------|
Eb|-----------------|------------------|----------------|------------------|----------------|

After a few bars this riff comes in:
eb|-------------------|-----------12-------|
Bb|-12--------12------|-12--------12-------|
Gb|------13--------13-|------13------------|
Db|-------------------|--------------------|
Ab|-------------------|--------------------|
Eb|-------------------|--------------------|


Bridge

eb|---------------|-----------------|-------------------|-----------------|
Bb|---------------|-----------------|-------------------|-----------------|
Gb|---------------|-----------------|-----6----6-6s8-8--|-----8---8-8-8---|
Db|---------------|-----------------|-4---4----4-4s6-6--|-----6---6-6-6---|
Ab|-7---7---7-7s4-|----4---4-4-4----|-----0----0-----0--|---0-----0-0-0-0-|
Eb|-----5---5---5-|----5---5-5-5----|-------------------|-----------------|

eb|---------------|-----------------|------------------|------------------|
Bb|---------------|-----------------|------------------|------------------|
Gb|---------------|-----------------|------------------|------------------|
Db|---------------|-----------------|------------------|------------------|
Ab|-7---7---7-7s4-|-----4---4-4-4-4-|-9-11--9-11----s6-|-(6)--------------|
Eb|-----5---5-----|---5-----5-5-5-5-|-0-0---0-0------0-|-(0)--------------|

Slowly bend the sixth fret at the end of the second time playing this part.


Outro synth fill

eb|----------------|---------------|----------------|----------------|
Bb|----------------|---------------|----------------|----------------|
Gb|----------------|---------------|----------------|----------------|
Db|-9------9s7s6s4-|---s2---2s4---4s6-------------0-|-(0)------------|
Ab|----------------|---------------|----------------|----------------|
Eb|----------------|---------------|----------------|----------------|
            
Tabs too difficult? Try these video lessons and learn fast.




comments powered by Disqus
↑ Back to top | Tablatures and chords are parodies/interpretations of the original songs. You may use it for private study, scholarship, research or language learning purposes only