» » »

Audioslave, Show Me How To Tabs (ver.1)

Artists:  A B C D E F G H I J K L M N O P Q R S T U V W X Y Z # 

Show Me How To Tabs (ver.1)

Audioslave Tabs
Rating:
0/5 (0 votes)
Show Me How To lessons Tabs too difficult? Try these video lessons and learn fast
                (Live)
This is my own work

Tuning: Drop D (D, A, D, G, B, E)

Intro: Distorted let ring the chords
E|-------------------------------------------------------|
B|-3-------------3-------------3-------------3-----------|
G|-2-------------2-------------2-------------2-----------|
D|-0------2------0------2------0------2------0------2----|
A|--------2-------------2-------------2-------------2----|
D|--------2-------------2-------------2-------------2----|

Riff:
The X means that you do a left hand muted on the second fret
E|-------------------------------------------------------------
B|------------------------------------------------------------- 
G|-------------------------------------------------------------
D|-------2-----------------------------------------------------
A|-----2-------------------------------------------------------
D|-0h2------X-X--0--2--X-X--0--2--X-X--7h8-7--X-X--5-2-X-2-0---

E|-------------------------------------|
B|-------------------------------------|
G|-------------------------------------| repeat 2 times
D|---------2---------------------------|
A|-------2-----------------------------|
D|-0-0h2------X-X--0--2--X-X--0-2------|

Verse 1: repeat riff 2 times with palm muted

And with the early dawn
Moving right along
I couldn't buy and eyeful of sleep
And in the aching night under satellites
I was not received

Verse 2: repeat riff 2 times with a little palm muted

Built with stolen parts
A telephone in my heart
Someone get me a priest
To put my mind to bed
This ringing in my head
Is this a cure or is this a disease

At the end of the riff do this:
E|---------------------
B|---------------------
G|--------------------- left hand muted
D|-X-X-X---X-X-X-X-X---
A|-X-X-X---X-X-X-X-X---
D|-X-X-X---X-X-X-X-X---

Chorus 1:
E|-------------------------------------------------------
B|-------------------------------------------------------
G|------------------------------------------------------- x2 
D|-2-----5--0h2-2-2--9--0-----2--5--0h2-2-2--7--0--------
A|-2-----5--0h2-2-2--7--0-----2--5--0h2-2-2--5--0--------
D|-2-----5--0h2-2-2-----0-----2--5--0h2-2-2-----0--------
   Nail in   my     hand      from   my   creator
   You gave  me     life now  show me how to live
    
Verse 3: do the riff whit palm muted

And in the after birth
Let the stains remind you
You thought you made a man
You better think again
Before my role defines you

At the end of the riff do this:
E|---------------------
B|---------------------
G|--------------------- left hand muted
D|-X-X-X---X-X-X-X-X---
A|-X-X-X---X-X-X-X-X---
D|-X-X-X---X-X-X-X-X---

Chorus 2:
E|-------------------------------------------------------
B|-------------------------------------------------------
G|------------------------------------------------------- x2 
D|-2-----5--0h2-2-2--9--0-----2--5--0h2-2-2--7--0--------
A|-2-----5--0h2-2-2--7--0-----2--5--0h2-2-2--5--0--------
D|-2-----5--0h2-2-2-----0-----2--5--0h2-2-2-----0--------
   Nail in   my     hand      from   my   creator
   You  gave me     life now  show me how to live

Solo:
   Repeat many times                  At the end of the solo do this:
E|-0-0-0-0-0-0-0-0-0-0-0-0-0-0-0-0----/------------------------------ 
B|------------------------------------/------------------------------
G|------------------------------------/------------------------------
D|------------------------------------/-------------2----------------
A|------------------------------------/-------------2---let ring-----
D|------------------------------------/-------------2----------------
  (2:30)                                           (2:52)

Interlude: let ring
E|-------------------------------------------------------|
B|-3-------------3-------------3-------------3-----------|
G|-2-------------2-------------2-------------2-----------| x2
D|-0------2------0------2------0------2------0------2----|
A|--------2-------------2-------------2-------------2----|
D|--------2-------------2-------------2-------------2----|

And in your waiting hands I will land
And roll out of my skin
And in your final hours I will stand
Ready to begin, ready to begin
Ready to begin, ready to begin

Chorus 3:
E|-------------------------------------------------------
B|-------------------------------------------------------
G|------------------------------------------------------- x2 
D|-2-----5--0h2-2-2--9--0-----2--5--0h2-2-2--7--0--------
A|-2-----5--0h2-2-2--7--0-----2--5--0h2-2-2--5--0--------
D|-2-----5--0h2-2-2-----0-----2--5--0h2-2-2-----0--------
   Nail in   my     hand      From   my   creator
   You  gave me     life now  show me how to live

Outro: let ring
E|------------------------------------------------------------------
B|------------------------------------------------------------------
G|------------------------------------------------------------------
D|-2---------------2-------2--------------2-------2--------------2--
A|-2---------------2-------2--------------2-------2--------------2--
D|-2---------------2-------2--------------2-------2--------------2--
   Show me how to live    Show me how to live    Show me how to live

In the last note you do a slide until 14th fret
E|-----------------------------------------------
B|-----------------------------------------------
G|-----------------------------------------------
D|-2-------------------2-----slide-----14--------
A|-2-------------------2-----slide-----14--------
D|-2-------------------2-----slide-----14--------
   Show me how to     live
                     (4:17)          (4:33)
            
Submit corrections

comments powered by Disqus
↑ Back to top | Audioslave Tabs for Show Me How To. Lyrics for acoustic guitar and electric guitar. Tablatures and chords are parodies/interpretations of the original songs. You may use it for private study, scholarship, research or language learning purposes only