» » »

Audioslave, Cochise Tabs

Artists:  A B C D E F G H I J K L M N O P Q R S T U V W X Y Z # 

Cochise Tabs

(ver. 1)
Audioslave Tabs
 Rating:
3.8/5 (38 votes)
    Cochise lessons Tabs too difficult? Try these video lessons and learn fast

WWW.AZCHORDS.COM | Audioslave Tabs - Cochise Tabs (ver. 1)


                #research. Remember to view this file in Courier, or some other monospaced    #
#font.                                                                        #

Band: Audioslave
Lyrics: Chris Cornell

Here's the tab for the first single of Audioslave's
self-titled debut. The song is called "Cochise".

Key:

/= slide up
\=slide down
b= bend
r= release

Intro:
You're pretty much on your own for the intro.
All I know is that during the very beginning,
all Tom does is mute the strings with a delay
on, just like in Rage's "The Ghost of Tom Joad."
The next part of the intro, I'm not so sure about.
It sounds like a closed wah strumming this:

e --------------------------
B --------------------------
G --------------------------
D --------------------------
A -7------------------------
E -0------------------------

I'm thinking maybe Tom also makes use of the Digitech
Whammy pedal that he has for the increse in pitch of
the intro. But don't take my word for the intro.

Verse:

e -------------------------------
B -------------------------------
G -------------------------------
D -------------------------------
A -/7---------------/7-----------
E ----10-7-10-7-3-0----10-7-3-0--

Pre-Chorus:

e -------------------------------
B -------------------------------
G -------------------------------
D -------------------7---8-------
A -/7----------------5---6-------
E ----10-7-10-7-8-0--------------

Chorus:

e ---------------------------
B ---------------------------
G ---------------------------
D --9-9----------------------
A --7-7----------------------
E --0-0-5-3-0--3-5--7-10-----

Solo:

Tremelo pick

e --------------------------|--------------------------
B --------------------------|--------------------------
G --------------------------|--------------------------
D -7br----------------------|-7br----------------------
A --------------------------|--------------------------
E --------------------------|--------------------------

e --------------------------|--------------------------
B --------------------------|--------------------------
G --------------------------|--------------------------
D -19br-19br-19br-19br------|-19br-19br-19br-19br------
A --------------------------|--------------------------
E --------------------------|--------------------------

Break:

e --------------------------|
B --------------------------|
G --------------------------|
D -9---9--------------------|  x4
A --------------------------|
E ---7---7------------------|

e --------------------------|
B --------------------------|
G --------------------------|
D --------------------------|  x3
A -7---7--------------------|
E ---0---0------------------|

then...
e --------------------------|
B --------------------------|
G --------------------------|
D -----7--------------------|  x4
A -7---5--------------------|
E ---0----------------------|

Structure:

Intro
Verse x 11
Pre-chorus
Chorus x 4
Solo
Verse x 7
Pre-chorus
Chorus x 8
Break
Chorus x 12

The end.
            
Submit corrections

↑ Back to top | Audioslave Tabs for Cochise. Lyrics for acoustic guitar and electric guitar. Tablatures and chords are parodies/interpretations of the original songs. You may use it for private study, scholarship, research or language learning purposes only