» » »

Audacious, Lift Your Name Tabs (ver.2)

Artists:  A B C D E F G H I J K L M N O P Q R S T U V W X Y Z # 

Lift Your Name Tabs (ver.2)

Audacious Tabs
 Rating:
4/5 (4 votes)
Lift Your Name lessons Tabs too difficult? Try these video lessons and learn fast
                -------------------------------------------------------------------------------
                           LIFT YOUR NAME - Audacious
-------------------------------------------------------------------------------

Tuning: Standard

Intro/Main Riff (palm mute for the intro)
   D#      E       G#
e|-------------------------------------|
B|-------------------------------------|
G|-8-8-8-/-9-9-9-/-13-13-13-13--13--13-|
D|-8-8-8-/-9-9-9-/-13-13-13-13--13--13-|
A|-6-6-6-/-7-7-7-/-11-11-11-11--11--11-|
E|-------------------------------------|

Verse
E
You are the risen king,
             A    E
You hold my everything,
        C#m
In your hands so strong,
              A    E
This is where I belong.

(Same chord sequence for other verses)


PreChorus
   D                            A
We join with all creation as we sing  (x2 second time)


Chorus 1
   E         B       A
We lift your name on high
   D#      E       G#
e|-------------------------------------|
B|-------------------------------------|
G|-8-8-8-/-9-9-9-/-13-13-13-13--13--13-|
D|-8-8-8-/-9-9-9-/-13-13-13-13--13--13-| x2
A|-6-6-6-/-7-7-7-/-11-11-11-11--11--11-|
E|-------------------------------------|
   E         B       A
We lift your name on high
   D#      E       G#                    D#     E      C#
e|-------------------------------------|-----------------|
B|-------------------------------------|-----------------|
G|-8-8-8-/-9-9-9-/-13-13-13-13--13--13-|-8---/--9--\---6-|
D|-8-8-8-/-9-9-9-/-13-13-13-13--13--13-|-8---/--9--\---6-|
A|-6-6-6-/-7-7-7-/-11-11-11-11--11--11-|-6---/--7--\---4-|
E|-------------------------------------|-----------------|


Chorus 2 ( = chorus 1 + following section...)
        C#m       E     B   A
There's more than meets the eye
   D#      E       G#
e|-------------------------------------|
B|-------------------------------------|
G|-8-8-8-/-9-9-9-/-13-13-13-13--13--13-|
D|-8-8-8-/-9-9-9-/-13-13-13-13--13--13-| x2
A|-6-6-6-/-7-7-7-/-11-11-11-11--11--11-|
E|-------------------------------------|
      C#m       B       E
As we lift your name on high

Interlude (Intro, palm muted before coming in with prechorus again)
   D#      E       G#
e|-------------------------------------|
B|-------------------------------------|
G|-8-8-8-/-9-9-9-/-13-13-13-13--13--13-|
D|-8-8-8-/-9-9-9-/-13-13-13-13--13--13-| x2
A|-6-6-6-/-7-7-7-/-11-11-11-11--11--11-|
E|-------------------------------------|


Structurally this is a very simple song, the main riff holds most of it together so once 
got that then you're set to go :)


************************************

| /   slide up
| \   slide down
| h   hammer-on
| p   pull-off
| ~   vibrato
| +   harmonic
| x   Mute note
| b   Bend
| pb  Pre-bend
| br  Bend release
| pbr Pre-bend release
| brb Bend release bend

************************************
            
Submit corrections

comments powered by Disqus
↑ Back to top | Audacious Tabs for Lift Your Name. Lyrics for acoustic guitar and electric guitar. Tablatures and chords are parodies/interpretations of the original songs. You may use it for private study, scholarship, research or language learning purposes only