» » »

Audacious, Lift Your Name Tabs (ver.1)

Artists:  A B C D E F G H I J K L M N O P Q R S T U V W X Y Z # 

Lift Your Name Tabs (ver.1)

Audacious Tabs
Rating:
0/5 (0 votes)
Lift Your Name lessons Tabs too difficult? Try these video lessons and learn fast
                


#-----------------------------------------------------------------------------##



Gtr. Tunning: Standard



Clean guitar with continually getting gain: 


e|-----------------------------------------------------------------|
h|-----------------------------------------------------------------|
G|-----------------------------------------------------------------|
D|-----------------------------------------------------------------|
A|---666-777-111111111111111111------------------------------------|
E|---000-000-111111111111111111------------------------------------| ( don´t exactly
 know about number of 11´s, idle to count, figure out by the listening of the 
song :) )


The rest is ussually the mixture of chords, I´ll explain it in advance, if 
name of song 
and you will surely find it. Here´s promised explanation:


e|-----------------------------------------------------------------|
h|-----------------------------------------------------------------|
G|---1-------------1-----------1-------1---------------------------|
D|---2-------------2-----------2-------2---------------------------|
A|---2--(2)-(2)----2--(2)-(2)--2-(2)---2--(2)-(2)------------------|
E|---0--(0)-(0)----0--(0)-(0)--0-(0)---0--(0)-(0)------------------| This is it, 
If you learn this pattern then you may aply it on others, again, by hearing, play the song

along with the musec from player.



Other chords are: E, am, E, Cis, am, E
interlude: d, c, A
Ref 1: E, H, A
Ref 2: E, H, A
       Cis, H, A, Cis, H, E



Think it´s all and you can figure it out by yourself with this help, if not 
comment, write to me, whatever.
Have a good play and God bless ya guys! :)


clean guitar
            

comments powered by Disqus
↑ Back to top | Audacious Tabs for Lift Your Name. Lyrics for acoustic guitar and electric guitar. Tablatures and chords are parodies/interpretations of the original songs. You may use it for private study, scholarship, research or language learning purposes only