» » »

At The Drive-In, Mannequin Republic Tabs (ver.1)

Artists:  A B C D E F G H I J K L M N O P Q R S T U V W X Y Z # 

Mannequin Republic Tabs (ver.1)

At The Drive-In Tabs
 Rating:
4/5 (4 votes)
Mannequin Republic lessons Tabs too difficult? Try these video lessons and learn fast
1
                e:------------|
     b:------------|
 Gu2 g:-3----3-----| this note needs bending in most of these bits
     d:-2----2-----|
     a:-1----1-----|
     E:-0----0-----|
 kinda heavy crunch sound

_______________________________________________________________________________

     e:-----------------|-----------------|-----------------|-----------------|
     b:-----------------|-----------------|-----------------|-----------------|
 Gu1 g:-9-9-9-9-9-9-9-9-|-9-9-9-9-9-7---9-|-7-7-7-7-7-7-7-6-|-6-6-6-3-3-3-3-3-|
     d:-----------------|-------------9---|-----------------|-----------------|
     a:-----------------|-----------------|-----------------|-----------------|
     E:-----------------|-----------------|-----------------|-----------------|

     e:-----------------|-----------------|-----------------|-----------------|
     b:-0-0-0-0-0-0-0-0-|-----------------|-----------------|-----------------|
 Gu2 g:-0-0-0-0-0-0-0-0-|-0-0-0-0-0-0-0-0-|-0-0-0-0-0-0-0-0-|-0-0-0-0-0-0-0-0-|
     d:-5-5-5-5-5-5-5-5-|-0-0-0-0-0-0-0-0-|-0-0-0-0-0-0-0-0-|-0-0-0-0-0-0-0-0-|
     a:-7-7-7-7-7-7-7-7-|-5-5-5-5-5-5-5-5-|-5-5-5-5-5-5-5-5-|-5-5-5-5-5-5-5-5-|
     E:-----------------|-6-6-6-6-6-6-6-6-|-7-7-7-7-7-7-7-7-|-6-6-6-6-6-6-6-6-|
 Gu2 is very very quiet and very crunchy(not sure about it though)

________________________________________________________________________________

     e:-0-0-0-0-0-0-0-0-|-0-0-0-0-0-0-0-0-|-0-0-0-0-0-0-0-0-|-0-0-0-0-0-0-0-0-|
     b:-5-5-5-5-5-5-5-5-|-5-5-5-5-5-5-5-5-|-7-7-7-7-7-7-7-7-|-8-8-8-8-8-8-8-8-|
 Gu1 g:-----------------|-----------------|-----------------|-----------------|
     d:-----------------|-----------------|-----------------|-----------------|
     a:-----------------|-----------------|-----------------|-----------------|
     E:-----------------|-----------------|-----------------|-----------------|
  this also gets played instead of the gu1 in the second 2 pregressions of every verse

________________________________________________________________________________

     e:-----------------|
     b:-----------------|
 Gu1 g:-9b-------7----7-|
     d:----8--9----8h9--|
     a:-----------------|
     E:-----------------|

     e:-----------------|
     b:-----------------|
 Gu2 g:-9----------xxxx-|
     d:-9----------xxxx-|
     a:-7----------xxxx-|
     E:------------xxxx-|
  same as above very quiet and crunchy

_______________________________________________________________________________
   1
     e:-----0-------0---|-----0-------0---|-----0-------0---|-----0-------0---|+|-----0-------0---|x2
     b:-5-------5-------|-7-------7-------|-8-------8-------|-3-------3-------| |-5-------5-------|
 Gu1 g:-----------------|-----------------|-----------------|-----------------| |-----------------|
     d:-----------------|-----------------|-----------------|-----------------| |-----------------|
     a:-----------------|-----------------|-----------------|-----------------| |-----------------|
     E:-----------------|-----------------|-----------------|-----------------| |-----------------|

     e:-----------------|-----------------|-----------------|-----------------|+|-----------------|x2
     b:-0---0---0---0---|-0---0---0---0---|-0---0---0---0---|-0---0---0---0---| |-0---0---0---0---|
 Gu2 g:-0---0---0---0---|-0---0---0---0---|-0---0---0---0---|-0---0---0---0---| |-0---0---0---0---|
     d:-5---5---5---5---|-5---5---5---5---|-5---5---5---5---|-5---5---5---5---| |-4---4---4---4---|
     a:-7---7---7---7---|-6---6---6---6---|-5---5---5---5---|-3---3---3---3---| |-2---2---2---2---|
     E:-----------------|-----------------|-----------------|-----------------| |-----------------|

   2
     e:-----0-------0---|-----0-------0---|-----0-------0---|-----0-------0---|+|-0---0---0---0---|x2
     b:-7-------7-------|-8-------8-------|-3-------3-------|-5-------5-------| |-8---8b--8b--8b--|
 Gu1 g:-----------------|-----------------|-----------------|-----------------| |-----------------|
     d:-----------------|-----------------|-----------------|-----------------| |-----------------|
     a:-----------------|-----------------|-----------------|-----------------| |-----------------|
     E:-----------------|-----------------|-----------------|-----------------| |-----------------|


AT THE DRIVE-IN FOREVER
            
Submit corrections

comments powered by Disqus
↑ Back to top | At The Drive-In Tabs for Mannequin Republic. Lyrics for acoustic guitar and electric guitar. 1 Tablatures and chords are parodies/interpretations of the original songs. You may use it for private study, scholarship, research or language learning purposes only