>
 >
Mannequin Republic 1

Mannequin Republic 1 Guitar Tabs

At The Drive-In - Mannequin Republic 1 chords, tabs, tablatures, lyrics

Guitar lessons | Add/correct | Request | Top 50 tabs Artists:  A B C D E F G H I J K L M N O P Q R S T U V W X Y Z 0-9

Mannequin Republic 1 Guitar Tabs – At The Drive-In

CD, Sheet music, Poster

Do you like Mannequin Republic 1? Share with your friends now
Bass TabsBass Tabs v2Bass Tabs v3TabsTabs v2
MANNEQUIN REPUBLIC


B------------------------------------------- |
G---9-9--------9-9--------9-9-------9-9----- |
D---8-8-8^9r8--8-8-8^9~r8-8-8-8^9r8-8-8-8^9- |
A---8-8--------8-8--------8-8-------8-8----- |
D---8-8--------8-8--------8-8-------8-8----- |

D---14-12-11-8-14p12h14p12-11-8- | -14-16-17-19- |
A------------------------------- | ------------- |
D------------------------------- | ------------- |

G---9-9-9-9-9-9-9-9-7-7-7-7-7-7-7-7-6-6-6-6-4-4-4-4-
D---9-9-9-9-9-9-9-9-7-7-7-7-7-7-7-7-6-6-6-6-4-4-4-4-
A---7-7-7-7-7-7-7-7-5-5-5-5-5-5-5-5-4-4-4-4-2-2-2-2-
D---------------------------------------------------
                                                         x4
G-9-9-9-9-9-9-9-9-7-9-7-9-7-7-7-7-7-7-7-7-6-6-6-6-4-4-4-4- |
D-9-9-9-9-9-9-9-9-7-9-7-9-7-7-7-7-7-7-7-7-6-6-6-6-4-4-4-4- |
A-7-7-7-7-7-7-7-7-5-7-5-7-5-5-5-5-5-5-5-5-4-4-4-4-2-2-2-2- |
D--------------------------------------------------------- |
                                       x2
G-9-9-9-9-9-9-9-9-10-10-10-10-12-12-12-12- |
D-9-9-9-9-9-9-9-9-10-10-10-10-12-12-12-12- |
A-7-7-7-7-7-7-7-7-9--9--9--9--10-10-10-10- |
D----------------------------------------- |

B------------------------------------------------------------
G---9-9---------------X-XX-9-9-------------9-9---------------
D---8-8-8-8^9r8-8^9r8-X-XX-8-8-8-8-X-8-9-8-8-8-8-8^9r8-8^9r8-
A---8-8---------------X-XX-8-8-------------8-8---------------
D---8-8---------------X-XX-8-8-------------8-8---------------

B------------- |
G-9-9-X-X-X-X- |
D-8-8-X-X-X-X- |
A-8-8-X-X-X-X- |
D-8-8-X-X-X-X- |

G---9-9-9-9-9-9-9-9-7-7-7-7-7-7-7-7-6-6-6-6-4-4-4-4-
D---9-9-9-9-9-9-9-9-7-7-7-7-7-7-7-7-6-6-6-6-4-4-4-4-
A---7-7-7-7-7-7-7-7-5-5-5-5-5-5-5-5-4-4-4-4-2-2-2-2-
D---------------------------------------------------
                                                         x4
G-9-9-9-9-9-9-9-9-7-9-7-9-7-7-7-7-7-7-7-7-6-6-6-6-4-4-4-4- |
D-9-9-9-9-9-9-9-9-7-9-7-9-7-7-7-7-7-7-7-7-6-6-6-6-4-4-4-4- |
A-7-7-7-7-7-7-7-7-5-7-5-7-5-5-5-5-5-5-5-5-4-4-4-4-2-2-2-2- |
D--------------------------------------------------------- |
                                       x2
G-9-9-9-9-9-9-9-9-10-10-10-10-12-12-12-12- |
D-9-9-9-9-9-9-9-9-10-10-10-10-12-12-12-12- |
A-7-7-7-7-7-7-7-7-9--9--9--9--10-10-10-10- |
D----------------------------------------- |

B---------------------9-(9)^11--------------------- |
G---13-XX-9-9-9-9-9-9----------11-XX-7-7-7-7-7-6-4- |
D---13-XX-9-9-9-9-9-9----------11-XX-7-7-7-7-7-6-4- |
A---11-XX-7-7-7-7-7-7----------9--XX-5-5-5-5-5-4-2- |

G----------------------------------- |
D---14^16r14-8-9-11-12^14r12p11-9-8- |
A----------------------------------- |

B------------------------------------------- |
G---9-9--------9-9--------9-9-------9-9----- |
D---8-8-8^9r8--8-8-8^9~r8-8-8-8^9r8-8-8-8^9- |
A---8-8--------8-8--------8-8-------8-8----- |
D---8-8--------8-8--------8-8-------8-8----- |

E-----0----0----0----0---0---0---0---0----0----0----
B---------------------------------------------------
G---9---11---12---11---9---7---4---9---11---12---11-

E---0---0----0----0----0---0---0---0---0----0----0----
B-----------------------------------------------------
G-9---9---11---12---11---9---7---4---9---11---12---14-

E----0----0----0---- |
B------------------- |
G-15---16---17---16- |

G---9-9-9-9-9-9-9-9-7-7-7-7-7-7-7-7-6-6-6-6-4-4-4-4-
D---9-9-9-9-9-9-9-9-7-7-7-7-7-7-7-7-6-6-6-6-4-4-4-4-
A---7-7-7-7-7-7-7-7-5-5-5-5-5-5-5-5-4-4-4-4-2-2-2-2-
D---------------------------------------------------
                                                         x4
G-9-9-9-9-9-9-9-9-7-9-7-9-7-7-7-7-7-7-7-7-6-6-6-6-4-4-4-4- |
D-9-9-9-9-9-9-9-9-7-9-7-9-7-7-7-7-7-7-7-7-6-6-6-6-4-4-4-4- |
A-7-7-7-7-7-7-7-7-5-7-5-7-5-5-5-5-5-5-5-5-4-4-4-4-2-2-2-2- |
D--------------------------------------------------------- |
                                       x2
G-9-9-9-9-9-9-9-9-10-10-10-10-12-12-12-12- |
D-9-9-9-9-9-9-9-9-10-10-10-10-12-12-12-12- |
A-7-7-7-7-7-7-7-7-9--9--9--9--10-10-10-10- |
D----------------------------------------- |

G---9-4-5-7-XX-XX- |
D---9-4-5-7-XX-XX- |
A---7-2-3-5-XX-XX- |

B---------------------9-(9)^11--------------------- |
G---13-XX-9-9-9-9-9-9----------11-XX-7-7-7-7-7-6-4- |
D---13-XX-9-9-9-9-9-9----------11-XX-7-7-7-7-7-6-4- |
A---11-XX-7-7-7-7-7-7----------9--XX-5-5-5-5-5-4-2- |

B------------------------------------------- |
G---9-9--------9-9--------9-9-------9-9----- |
D---8-8-8^9r8--8-8-8^9~r8-8-8-8^9r8-8-8-8^9- |
A---8-8--------8-8--------8-8-------8-8----- |
D---8-8--------8-8--------8-8-------8-8----- |

B------------------------------------------- |
G---9-9--------9-9--------9-9-------9-9----- |
D---8-8-8^9r8--8-8-8^9~r8-8-8-8^9r8-8-8-8^9- |
A---8-8--------8-8--------8-8-------8-8----- |
D---8-8--------8-8--------8-8-------8-8----- |





Comments


Popular At The Drive-In tabs & chords
Chanbera Bass Tabs
Onearmedscissor Bass Tabs
Sleepwalk Capsules 1 Bass Tabs
Catacombs Tabs
Enfilade Tabs
For Now... We Toast Tabs
Give It A Name Tabs
Honest To A Fault Tabs
Incetardis Tabs
Lobsided Correct Tabs


Song lyrics



↑ Back to top | Tablatures and chords are parodies/interpretations of the original songs. You may use it for private study, scholarship, research or language learning purposes only
© 2014 AZChords.com Contact us | Privacy policy | DMCA | Add/correct tabs | Request tabs | Top 50 tabs