» » »

Hourglass Tabs (ver.4)

Artists:  A B C D E F G H I J K L M N O P Q R S T U V W X Y Z # 

Hourglass Tabs (ver.4)

At The Drive-In
Rating:
0/5 (0 votes)

Hard to play? Try these video lessons and learn fast.
                (Complete)
At the drive-in - Hourglass

Im sure this is right, I have most of the piano parts, and guitar

4s-26s  Intro(repeated through verse)
E-----------------------
B-----------------------
G----9-7-9-7---------7--
D------------10-7-10----
A-----------------------
E-----------------------

4s-26s Intro(piano)
E-------------------------------------------------------
B------8---8--------8---8------8---8------8---8---------
G--------9------------9----------9----------9------10--9
D—-10------------7----------10---------10-----------x--x
A—-10------------7----------10---------10-----------8--7
e---8------------5-----------8----------8---------------

Toward end of verse 27s-35s
E--------------------------------
B-------15---17---15-------------
G---17---------------------------
D--------------------------------
A--------------------------------
E--------------------------------

0r……(I like to play it like this) 27s-35s 
E----------------------------------
B------------15------17------15----
G-----17---------------------------
D----------------------------------
A--15-----15-----15------15--------
E----------------------------------

Next part 35s–50s  (piano parts)
E------12-10------------------------
B------------13---------------------
G---------------------14—11—14------
D—-7--------------4-----------------
A—-7--------------4-----------------
E—-5--------------2-----------------

Slight guitar in background on the piano part 35s-50s
E----------------------------------------------
B----------------------------------------------
G----------------------------------------------
D--------5--------5-----or-------5---------5—4-
A---7--------7--------------7---------7--------
E----------------------------------------------

51s - 1m 13s  intro/verse riff

1m 14s - 1m 21s  toward end of verse riff

1m 22s – 1m 51s  next part (piano with slight guitar)

then comes..1m 52s – 2m 21s (guitar one)
e---5---5---5---5---3—--3---0---0------------
b--5-5-5-5-3-3-3-3-3-3-3-3-0-0-0-0-----------
g—5---5---5---5---5---5---5---5--------------
d--------------------------------------------
a--------------------------------------------
e--------------------------------------------

guitar 2…  1m 52s – 2m 21s
e---5-------1------------------------------------
b---5-------1------------------------------------
g---5-------2--------5---------------------------
d—--7-------3--------5---------------------------
a—--7-------3--------3---------------------------
e—--5-------1------------------------------------

then from 2m 22s – 2m 51s, same deal ,with distortion

2m 52s – 3m 8s, guitar 2 riff, no distortion

2m 52s – end, guitar one riff no distortion, slows toward end

my 2nd tab, hope u like it

ATDI forever!!!!!!!
            
Hard to play? Try these video lessons and learn fast. | Correct




comments powered by Disqus
↑ Back to top | Tablatures and chords are parodies/interpretations of the original songs. You may use it for private study, scholarship, research or language learning purposes only