» » »

At The Drive-In, Hourglass Tabs (ver.1)

Artists:  A B C D E F G H I J K L M N O P Q R S T U V W X Y Z # 

Hourglass Tabs (ver.1)

At The Drive-In Tabs
Rating:
5/5 (6 votes)
Hourglass lessons Tabs too difficult? Try these video lessons and learn fast
                
I commend you for your musical taste.  This is a very good song, 
and you are a very cool person for liking it. :)

  Am    D/F#   F     C
|--0--|--2--|--1--|--0--|
|--1--|--3--|--1--|--1--|
|--2--|--2--|--2--|--0--|
|--2--|--0--|--3--|--2--|
|--0--|--0--|--3--|--3--|
|-----|--2--|--1--|-----|

Verse 1:

Am         F           C  
Sucks me in taking a ride
Am         F            C
And I'm wishing for the satellite
Am           F           C
Grabbin vein pullin down on the radio
Am         F               C
Laughing at the face that's bending down

(Riff during verse is probably played with 2 guitars like this):

|---------------------------|   |---8---8-10-12-10--8---8-10-12-10-|
|---1---1-3-5-3-1---1-3-5-3-|   |-8---8---------------8------------|
|-0---0-----------0---------|   |----------------------------------|
|---------------------------|   |----------------------------------|
|---------------------------|   |----------------------------------|
|---------------------------|   |----------------------------------|

Chorus:

Am                D/F#
  I'm all alone so far up here
Am                    D/F#
   And my oxygen's all gone

(Play second verse with the same chords as the first)

(Song kicks back in with a more distorted verse, 
then fades to the background guitar)

|-5-1-3-3-|          |---5---5---5---5---3---3---0---0--|
|-5-1-5-5-|          |--5-5-5-5-8-8-8-8-3-3-3-3-0-0-0-0-|
|-5-2-5-5-|          |-5---5---5---5---5---5---5---5----|
|-7-3-5-5-|          |----------------------------------|
|-7-3-3-3-|          |----------------------------------|
|-5-1-----|          |----------------------------------|

Outro:
|---5---5---5---5---3-----3---------0--nh(7)-|
|--5-5-5-5-8-8-8-8-3-3--3---3----0-----------|
|-5---5---5---5---5---5-------5--------------|
|--------------------------------------------|
|--------------------------------------------|
|--------------------------------------------|

Song order:

Verse 1
Chorus
Verse 2
Chorus
Verse 3
Outro

Short and very...VERY sweet song...
            
Submit corrections

comments powered by Disqus
↑ Back to top | At The Drive-In Tabs for Hourglass. Lyrics for acoustic guitar and electric guitar. Tablatures and chords are parodies/interpretations of the original songs. You may use it for private study, scholarship, research or language learning purposes only