>
 >
Hourglass 1

Hourglass 1 Guitar Tabs

At The Drive-In - Hourglass 1 chords, tabs, tablatures, lyrics

Guitar lessons | Add/correct | Request | Top 50 tabs Artists:  A B C D E F G H I J K L M N O P Q R S T U V W X Y Z 0-9

Hourglass 1 Guitar Tabs – At The Drive-In

CD, Sheet music, Poster

Do you like Hourglass 1? Share with your friends now
Bass TabsTabsTabs v2Tabs v3

 Used chords:

 Am  D/F# F   C
|-0-|-2-|-1-|-0-|
|-1-|-3-|-1-|-1-|
|-2-|-2-|-2-|-0-|
|-2-|-0-|-3-|-2-|
|-0-|-0-|-3-|-3-|
|---|-2-|-1-|---|




* Verse

Guit 1 is doing chords: (piano too)

Am        F           C 
 Sucks me in taking a ride

 ...(same)

Guit 2 play this:

|-------------------|
|-1-3-5-3-5-3-1-2---|
|-----------------2-|   x4
|-------------------|
|-------------------|
|-------------------|


* Chorus

Am
I'm all alone so far up there
D/F#
And my oxygen's all gone


* Verse
* Chorus x2
* Verse


* Verse instrumental
(with a distortion guitar)

Guit 1               Guit 2

|-5-1-3-3-|          |---5---5---5-7--5-7--3---3---0---0--|
|-5-1-5-5-|          |--5-5-5-5-5----5----3-3-3-3-0-0-0-0-|
|-5-2-5-5-|          |-5---5---5----5----5---5---5---5----|
|-7-3-5-5-|          |------------------------------------|
|-7-3-3-3-|          |------------------------------------|
|-5-1-----|          |------------------------------------|


* End:
(clean guitar)

Guit 2

|---5---5---5-7--5-7--3-----3---------0-|
|--5-5-5-5-5----5----3-3--3---3----0----|
|-5---5---5----5----5---5-------5-------|
|---------------------------------------|
|---------------------------------------|
|---------------------------------------|





Comments


Popular At The Drive-In tabs & chords
Enfilade Bass Tabs
Fahrenheit Bass Tabs
Give It A Name Bass Tabs
Quarantined 2 Bass Tabs
Catacombs Tabs
Catacombs 1 Tabs
Cosmonaut 2 Tabs
Doorman's Placebo Tabs
Hourglass 2 Tabs
Rolodex Propaganda 1 Tabs


Song lyrics



↑ Back to top | Tablatures and chords are parodies/interpretations of the original songs. You may use it for private study, scholarship, research or language learning purposes only
© 2014 AZChords.com Contact us | Privacy policy | DMCA | Add/correct tabs | Request tabs | Top 50 tabs