» » »

At The Drive-In, Extracurricular Tabs (ver.2)

Artists:  A B C D E F G H I J K L M N O P Q R S T U V W X Y Z # 

Extracurricular Tabs (ver.2)

At The Drive-In Tabs
 Rating:
4/5 (4 votes)
Extracurricular lessons Tabs too difficult? Try these video lessons and learn fast
                Tuning: Standard (EADGBE)

This is one of ATDI's easier songs to play/tab, but it is also one of the best.

guitar 1
--0-0-0-0--0--
--0-0-0-0--0-- listen to the song for strumming its hard to tab out
--9-7-9-7-11--
--------------
--------------
--------------

guitar 1
---------------------------12-11----11-15----11-12-11----11-15----11--
---------------------------------13-------13----------13-------13-----
--2-222-2-222-2-222-2-222---------------------------------------------
--2-222-2-222-2-222-2-222---------------------------------------------
--0-----0-----0-----0-------------------------------------------------

guitar2
--999999999999999999999999-88888888888888888888-55555555555555555555--
--xxxxxxxxxxxxxxxxxxxxxxxx-99999999999999999999-66666666666666666666--
--777777777777777777777777-77777777777777777777-44444444444444444444--

guitar 1  . = palm mute
----------------------
---------------------- play a few times then play the whole thing palm muted
------7----7-7--------
--0-0---6-6----6------
-----------------0-1--
----------------------
  . .            . .

guitar 2
----------------------
----------------------
--9-------------------
--x--------------7-9--
--7--------------7-9--
-----------------5-7--

then

---------------------------------------------
---------------------------------------------
------------------------8888888888888-99-77--
--22222222222222-77-99--xxxxxxxxxxxxx-xx-xx--
--22222222222222-77-99--7777777777777-77-55--
--00000000000000-55-77-----------------------

then

---------------------------------------------
--------------------------------------------- sometimes this is palm muted sometimes it isnt
---------------------------------------------
---------------------------------------------
------------------------0000000000000-77-55--
--00000000000000-55-77-----------------------

guitar 1
--12-12-12-12-12-12-12-12--------------------------
--------------------------10-10-10-11-11-11-12-12-- match guitar 2's rythem
---------------------------------------------------
---------------------------------------------------
---------------------------------------------------
---------------------------------------------------

guitar 2
------------------------
---------------888-9-8--
--99999999-777----------
------------------------
------------------------
------------------------

both guitars
--7-------12----15--10----12--  then  g   --------------- g   --12----------
----8--------12--------10-----        u   --10brbr-8brb-- u   -----12-10br--
------9-----------------------        i   --------------- i   --------------
------------------------------        t 1 --------------- t 2 --------------
------------------------------        a   --------------- a   --------------
------------------------------        r   --------------- r   --------------

------7---12----15--10----12--
----8--------12--------10-----
--9---------------------------
------------------------------ then play the endings above
------------------------------
------------------------------
            
Submit corrections

comments powered by Disqus
↑ Back to top | At The Drive-In Tabs for Extracurricular. Lyrics for acoustic guitar and electric guitar. Tablatures and chords are parodies/interpretations of the original songs. You may use it for private study, scholarship, research or language learning purposes only