» » »

At The Drive-In, Extracurricular Bass tabs (ver.1)

Artists:  A B C D E F G H I J K L M N O P Q R S T U V W X Y Z # 

Extracurricular Bass tabs (ver.1)

At The Drive-In Tabs
 Rating:
4/5 (6 votes)
Extracurricular lessons Tabs too difficult? Try these video lessons and learn fast
                At The Drive-In
off split CD with Sunshine

E,A,D,G

rest for 5 seconds

intro (quietly)
------------------------------------|
------------------------------------|
------------------------------------|
12--0--12-------12--0--12--0--12-12-|

chorus (not quietly)   4 times
-------------------------------------------|
-------------------------------------------|
-------------------------------------------|
0--0-12-0-12--0-12-0-12--0-12-0-12--0-12-0-|
the above 12's are twelves
--------------------------------------------|
--------------------------------------------|
5---5-5-5-5-5-7-7-6-6-0---0-0-0-0-0-2-2-3-3-|
--------------------------------------------|

bridge                  once
--------------------------------------------|
--------------------------------------------|
------------5-7-------------7-5-------------|
0---------------0---------------5-----------|
hold the 0's and 5's on the
e string during this part
--------------------------------|
--------------------------------|
5-7---------7-5-------------5-7-|
----0-----------5---------------|

verse                 4 times
--------------------------------|
--------------------------------|
------------55770000000000007755|
000000000000--------------------|

chorus 3 times

verse 6 times

chorus 4 times

rest until  2:43

breakdown    do a quick slide (0/12)
5 times      on the E string at 2:34
-----------------------------------|
-----------------------------------|
----7-7-----7-7-55-55-55-5555h66h7-|
00-0---0-00------------------------|

----------------------------------|
-------------------------------5--|
----7-7-----7-7-55-5555544445h7-7-|
00-0---0-00-----------------------|

chorus 3 times

ending once
---------------------------------------------|
---------------------------------------------|
---------------------------------------------|
0--0-12-0-12--0-12-0-12--0-12-0-12--0-12-0-12|

notes:
i hope this is pretty accurate. some of the
riffs were very hard to hear. the rhythms
are the hardest part. i couldn't hear the
individual bass notes (especially in the
breakdown) until i put my ear right up to
the sub, so i recommend you do the same,
unless you have a good system.

h = hammer on
/ = slide up
            
Submit corrections

comments powered by Disqus
↑ Back to top | At The Drive-In Bass for Extracurricular. Lyrics for acoustic guitar and electric guitar. Tablatures and chords are parodies/interpretations of the original songs. You may use it for private study, scholarship, research or language learning purposes only