» » »

Catacombs Tabs (ver.3)

Artists:  A B C D E F G H I J K L M N O P Q R S T U V W X Y Z # 

Catacombs Tabs (ver.3)

At The Drive-In
Rating:
0/5 (0 votes)

Tabs too difficult? Try these video lessons and learn fast.
                This is only the first three riffs of the song, I am almost positive they are
correct. I am currently tabbing out the rest of the song.

E[-----------------------------------]
B[-----------------------------------]
G[----------------9br----------------]
D[-----------------------------------]
A[------999-----------------------9--]
E[--0-0-----10-10-----333-555-7-7----]

E[-----------------------------------------------------]
B[--15-15-15--13-13-13--12-12-12-12-12-12-12-12-12-12--]
G[--12-12-12--12-12-12--12-12-12-12-12-12-12-12-12-12--] one time
D[---x--x--x---x--x--x---x--x--x--x--x--x--x--x--x--x--]
A[--12-12-12--12-12-12--14-14-14-14-14-14-14-14-14-14--]
E[-----------------------------------------------------]

then 

E[-----------------------------------------------------]
B[--15-15-15--10-10-10--12-12-12-12-12-12-12-12-12-12--]
G[--12-12-12---9--9--9--12-12-12-12-12-12-12-12-12-12--] one time
D[---x--x--x---x--x--x---x--x--x--x--x--x--x--x--x--x--]
A[--12-12-12---9--9--9--14-14-14-14-14-14-14-14-14-14--]
E[-----------------------------------------------------]

Repeat the last 2 riffs three more times.

I will post the rest of the song once I tab it out. Plz rate this tab and 
correct it if you feel it needs correcting.
            
Tabs too difficult? Try these video lessons and learn fast.


comments powered by Disqus
↑ Back to top | Tablatures and chords are parodies/interpretations of the original songs. You may use it for private study, scholarship, research or language learning purposes only