» » »

At The Drive-In, Catacombs Bass tabs (ver.1)

Artists:  A B C D E F G H I J K L M N O P Q R S T U V W X Y Z # 

Catacombs Bass tabs (ver.1)

At The Drive-In Tabs
 Rating:
3.4/5 (5 votes)
Catacombs lessons Tabs too difficult? Try these video lessons and learn fast
                Bassist: Paul Hinojos

There was another bass tab for this but
it had a lot of things wrong (at least the way I saw it),
and seeing as this is my favorite ATDI song,
I’d hate to see an awesome song like this ruined.
I edited it a little bit (the number of notes he had were wrong).

As a side note, I HIGHLY recommend you play this with a pick.
Paul always uses a pick and that’s what gives his basslines that really nice sound.

Verse
(0:30)
|-----------------------------------|
|--------------99-------------------|
|---999-------------------------0022|
|0-0------10-10------0-0-333--------|

|-----------------------------------|
|--------------99-------------------|
|---999-------------------------0022|
|0-0------10-10------0-0-333--------|

|-----------------------------------|
|--------------99-------------------|
|---999-------------------------0022|
|0-0------10-10------0-0-333--------|

|-----------------------------------|
|--------------99-------------------|
|---999-----------------------0-0---|
|0-0------10-10------0-0-333--------|
Rest (no bass)
(0:44)
|-----------------------------------|
|-----------------------------------|
|-----------------------------------|
|-----------------------------------|
(0:51)               “Lark-throated…”
|-----------------------------------|
|--------------99-------------------|
|---999-------------------------0022|
|0-0------10-10------0-0-333--------|

|-----------------------------------|
|--------------99-------------------|
|---999-------------------------0022|
|0-0------10-10------0-0-333--------|

|-----------------------------------|
|--------------99-------------------|
|---999-------------------------0022|
|0-0------10-10------0-0-333--------|

|-----------------------------------|
|--------------99-------------------|
|---999-------------------------0022|
|0-0------10-10------0-0-333--------|

|-----------------------------------|
|--------------99-------------------|
|---999-------------------------0022|
|0-0------10-10------0-0-333--------|

|-----------------------------------|
|--------------99-------------------|
|---999-------------------------0022|
|0-0------10-10------0-0-333--------|
Prechorus pt. 1
(1:12)	            “Hey you…”
|-----------------------------------|
|-----------------------------------|
|-----------------------------------|
|-0r0r------------------------------| x6
Prechorus pt. 2
(1:33)
 *Note: This is a variation of the verse riff. On the end, where you play the open A and 
the the two B’s, make sure you rest after each open note and play the B notes a lot 
than you did in the verse. If you listen to the song it should be easy.*
|-----------------------------------|
|--------------99-------------------|
|---999-----------------------0r0r22|
|0-0------10-10------0-0-333--------|

|-----------------------------------|
|--------------99-------------------|
|---999-----------------------0r0r22|
|0-0------10-10------0-0-333--------|

|-----------------------------------|
|--------------99-------------------|
|---999-----------------------0r0r22|
|0-0------10-10------0-0-333--------|

|-----------------------------------|
|--------------99-------------------|
|---999-----------------------0r0r22|
|0-0------10-10------0-0-333--------|

|-----------------------------------|
|--------------99-------------------|
|---999-----------------------0r0r22|
|0-0------10-10------0-0-333--------|

|-----------------------------------|
|--------------99-------------------|
|---999-----------------------0r0---|
|0-0------10-10------0-0-333--------|

Chorus   “This gravity…”
 (1:54)	*Note: The 10 is the G note on the A string, NOT an A# and an open A*
|-------------------------------------------------------|
|-------------------------------------------------------|
|-10-1010101010101010-5-55555555\8-88888888—44-44-444-4-|
|-------------------------------------------------------|

|-------------------------------------------------------|
|-------------------------------------------------------|
|-10-1010101010101010-5-55555555\8-88888888—44-44-444-4-|
|-------------------------------------------------------|

|-------------------------------------------------------|
|-------------------------------------------------------|
|-10-1010101010101010-5-55555555\8-88888888—44-44-444-4-|
|-------------------------------------------------------|

|-------------------------------------------------------|
|-------------------------------------------------------|
|-10-1010101010101010-5-55555555\8-88888888—44-44-444-4-|
|-------------------------------------------------------|

|-------------------------------------------------------|
|-------------------------------------------------------|
|-10-1010101010101010-5-55555555\8-88888888—44-44-444-4-|
|-------------------------------------------------------|

(2:21) Verse
|-----------------------------------|
|--------------99-------------------|
|---999-------------------------0022|
|0-0------10-10------0-0-333--------|

|-----------------------------------|
|--------------99-------------------|
|---999-------------------------0022|
|0-0------10-10------0-0-333--------|

|-----------------------------------|
|--------------99-------------------|
|---999-------------------------0022|
|0-0------10-10------0-0-333--------|

|-----------------------------------|
|--------------99-------------------|
|---999-------------------------0022|
|0-0------10-10------0-0-333--------|

|-----------------------------------|
|--------------99-------------------|
|---999-------------------------0022|
|0-0------10-10------0-0-333--------|

|-----------------------------------|
|--------------99-------------------|
|---999-------------------------0-0-|
|0-0------10-10------0-0-333--------|
Rest (no bass)
 (2:41)	“What’s that sound…”
|------------------------------------|
|------------------------------------|
|------------------------------------|
|------------------------------------|
Bridge
Rest (no bass)
(2:56)	“Hey, you…”
|------------------------|
|------------------------|
|------------------------|
|------------------------|
*Note: Actually, there might be bass here, but I can’t hear it. I’m more inclined to 
that there really is no bass, as ATDI usually has their bass pretty loud so I’d be 
if there actually was bass in this part. If you think there is, please correct me.*

Chorus
(3:09)
|-------------------------------------------------------|
|-------------------------------------------------------|
|-10-1010101010101010-5-55555555\8-88888888—44-44-444-4-|
|-------------------------------------------------------|

|-------------------------------------------------------|
|-------------------------------------------------------|
|-10-1010101010101010-5-55555555\8-88888888—44-44-444-4-|
|-------------------------------------------------------|

|-------------------------------------------------------|
|-------------------------------------------------------|
|-10-1010101010101010-5-55555555\8-88888888—44-44-444-4-|
|-------------------------------------------------------|

|-------------------------------------------------------|
|-------------------------------------------------------|
|-10-1010101010101010-5-55555555\8-88888888—44-44-444-4-|
|-------------------------------------------------------|

|-------------------------------------------------------|
|-------------------------------------------------------|
|-10-1010101010101010-5-55555555\8-88888888—44-44-444-4-|
|-------------------------------------------------------|

|---------------------------------------------------------|
|---------------------------------------------------------|
|-10-1010101010101010-5-55555555\8-88888888—44-44-44-44-4-|
|---------------------------------------------------------|

Well, that’s it. If there’s anything wrong, PLEASE let me know.
            
Submit corrections

comments powered by Disqus
↑ Back to top | At The Drive-In Bass for Catacombs. Lyrics for acoustic guitar and electric guitar. Tablatures and chords are parodies/interpretations of the original songs. You may use it for private study, scholarship, research or language learning purposes only