» » »

This Is A Test Bass tabs (ver.2)

Artists:  A B C D E F G H I J K L M N O P Q R S T U V W X Y Z # 

This Is A Test Bass tabs (ver.2)

Attack Attack
Rating:
0/5 (0 votes)

Tabs too difficult? Try these video lessons and learn fast.
                Hey Guys, as you may know, there is also a guitar version off this tab, which is 
also my tab, so feel free to ask me things about this song...

This Is around 90% correct...


G[------------------------]
D[------------------------]
A[------------------------]
E[-1-33-1-3-3-13-3-1-3-4-3]x2


G[-----------------]
D[-----------------]
A[-----------------]
E[-00-9999-00-777\6]x3


G[----------------]
D[----------------]
A[----------------]
E[-1111111-4-0----]

G[--------------------------------------]
D[--------------------------------------]
A[--------------------------------------]
E[-1-1-0-0-01-1-0-0-01-1-0-0-0-1-1-1-4-3]x2



                        \
G[----]---------------]   \
D[----]-3-3-1---------]    \ x2
A[----]-------3-0-----]    /
E[-1-1]---------------]x3 /
                        /
                       /
G[----------------]   /
D[----------------]  /
A[----------------] /
E[-1-1-1-4-3------]/


G[----------------------------------]
D[----------------------------------]
A[---------------------------3333333]
E[-1111111-3333333-5555555----------]

G[----------------]
D[----------------]
A[----------------]
E[-1111111-3333333]

G[-----------------]
D[-----------------]
A[-----------------]
E[-00-9999-00-777\6]x3


G[--------------------------------------]
D[--------------------------------------]
A[--------------------------------------]
E[-1-1-0-0-01-1-0-0-01-1-0-0-0-1-1-1-4-3]x2



                        \
G[----]---------------]   \
D[----]-3-3-1---------]    \ x2
A[----]-------3-0-----]    /
E[-1-1]---------------]x3 /
                        /
                       /
G[----------------]   /
D[----------------]  /
A[----------------] /
E[-1-1-1-4-3------]/


G[----------------------------------]
D[----------------------------------]
A[---------------------------3333333]
E[-1111111-3333333-5555555----------]x2



G[------------------------]
D[------------------------]
A[------------------------]
E[-1-33-1-3-3-13-3-1-3-4-3]x8...i think

G[----------------------------------]
D[----------------------------------]
A[---------------------------3333333]
E[-1111111-3333333-5555555----------]x4


G[-----------------]
D[-----------------]
A[-----------------]
E[-00-9999-00-777\6]x3


G[--------------------------------------------------------------]
D[--------------------------------------------------------------]
A[Take Out Cable Get Some Sorta Feedback Thingy And Plug back in]
E[--------------------------------------------------------------]

G[------------------------]
D[------------------------]
A[------------------------]
E[-1-33-1-3-3-13-3-1-3-4-3]

End!
Thanks please Be respectful and rate please...
            
Tabs too difficult? Try these video lessons and learn fast.




comments powered by Disqus
↑ Back to top | Tablatures and chords are parodies/interpretations of the original songs. You may use it for private study, scholarship, research or language learning purposes only