» » »

Attack Attack, Pick A Side Tabs (ver.1)

Artists:  A B C D E F G H I J K L M N O P Q R S T U V W X Y Z # 

Pick A Side Tabs (ver.1)

Attack Attack Tabs
Rating:
5/5 (1 vote)
Hard to play? Try these video lessons and learn fast.
                (Intro)
Great new song from Attack Attack!! 
Will put up a tab for the whole song later but for now this is all I have time for, So enjoy!!


Tuning: Drop A (low to high) A E A D F# B


Guitar 1 0:00
x2
|------------------------------------------|
|------------------------------------------|
|-77777777777777777b-77777777777777777b----|
|------------------------------------------|
|-55555555555555555b-55555555555555555b----|
|------------------------------------------|

Guitar 2 0:16
x2
|-----------------------------------------------------------------------------|
|-----------------------------------------------------------------------------|
|-----------------------------------------------------------------------------|
|-----------------------------------------------------------------1-----------|
|-----------------------------------------------------------------1-000-------|
|-000~-000~12p0-000--000-12p0-4p0-4p0-000~-000~12p0-000--000-12p0-1-111-------|
                                                                    ...
(Twelve not 1 and 2)

 Both Guitars 0:30

|-----------------------------------------------------------------------------|
|-----------------------------------------------------------------------------|
|-----------------------------------------------------------------------------|
|-----------------------------1-----------------------------------------------|
|-----------------------------1-000-----------------------------3-------------|
|-000~-000~12p0-000--000-12p0-1-111-000~-000~12p0-000--000-12p0---4-3-1-------|
                                ...

|---------------------------------------------------------------------------------|
|---------------------------------------------------------------------------------|
|---------------------------------------------------------------------------------|
|-----------------------------1---------------------------------1111--------------|
|-----------------------------1-000-----------------------------1111--------------|
|-000~-000~12p0-000--000-12p0-1-111-000~-000~12p0-000--000-12p0-1111--------------|
                                ...
Guitar 1 0:45

|--------------------------------------------------|
|--------------------------------------------------|
|--------------------------------------------------|
|-1111---4444---1111-------------------------------|
|-1111---4444---1111-------------------------------|
|-1111---4444---1111-------------------------------|
                                
Guitar 2 Rest

Breakdown!! 0:52 - 1:00

Both Guitars
|----------------------------------------------------|
|----------------------------------------------------|
|----------------------------------------------------|
|----------------------------------------------------|
|-0-000-0-000-000-00000000-0-000-0-000-000-00000000--|
|-1-111-1-111-111-11111111-1-111-1-111-111-11111111--|
  . ... . ... ... .... ... . ... . ... ... .... ...

(Not to sure about the rhythm but Its near enough!) 
            

comments powered by Disqus
↑ Back to top | Attack Attack Tabs for Pick A Side. Lyrics for acoustic guitar and electric guitar. Tablatures and chords are parodies/interpretations of the original songs. You may use it for private study, scholarship, research or language learning purposes only