>
 >
Honesty

Honesty Guitar Tabs

Attack Attack - Honesty chords, tabs, tablatures, lyrics

Guitar lessons | Add/correct | Request | Top 50 tabs Artists:  A B C D E F G H I J K L M N O P Q R S T U V W X Y Z 0-9

Honesty Guitar Tabs – Attack Attack

CD, Sheet music, Poster

Do you like Honesty? Share with your friends now
Tabs


Enjoy!






                  4/4
                   E E E E E E E E   E E E E E E E E   E E E E E E E E
                E|-----------------|-----------------|-----------------|
                B|-----------------|-----------------|-----------------|
                G|-----------------|-----------------|-----------------|
Electric Guitar D|-----------------|-----------------|-----------------|
                A|-----------------|-----------------|-----------------|
                D|-9-9-9-9-9-9-9-9-|-9-9-9-9-9-9-9-9-|-8-8-8-8-8-8-8-8-|
                 |
                 |
                 |
                 |
                 |
                 |
                E|-----------------|-----------------|-----------------|
                B|-----------------|-----------------|-----------------|
                G|-----------------|-----------------|-----------------|
Electric Guitar D|-----------------|-----------------|-----------------|
                A|-----------------|-----------------|-----------------|
                D|-----------------|-----------------|-----------------|






   E E E E E E E E   E E E E E E E E   E E E E E E E E   E E E E E E E E
E|-----------------|-----------------|-----------------|-----------------|
B|-----------------|-----------------|-----------------|-----------------|
G|-----------------|-----------------|-----------------|-----------------|
D|-----------------|-----------------|-----------------|-----------------|
A|-----------------|-----------------|-----------------|-----------------|
D|-8-8-8-8-8-8-8-8-|-7-7-7-7-7-7-7-7-|-7-7-7-7-7-7-7-7-|-6-6-6-6-6-6-6-6-|
 |
 |
 |
 |
 |
 |
E|-----------------|-----------------|-----------------|-----------------|
B|-----------------|-----------------|-----------------|-----------------|
G|-----------------|-----------------|-----------------|-----------------|
D|-----------------|-----------------|-----------------|-----------------|
A|-----------------|-----------------|-----------------|-----------------|
D|-----------------|-----------------|-----------------|-----------------|






   E E E E E E E E   E E E E E E E E   E E E E E E E E   E E E E E E E E
E|-----------------|-----------------|-----------------|-----------------|
B|-----------------|-----------------|-----------------|-----------------|
G|-----------------|-----------------|-----------------|-----------------|
D|-----------------|-----------------|-----------------|-----------------|
A|---5-----5-------|-----------------|-----------------|-----------------|
D|-6---6-6---6-6-6-|-9-9-9-9-9-9-9-9-|-9-9-9-9-9-9-9-9-|-8-8-8-8-8-8-8-8-|
 |
 |
 |
 |
 |
 | E E E E E E E E
E|-----------------|-----------------|-----------------|-----------------|
B|-----------------|-----------------|-----------------|-----------------|
G|-----------------|-----------------|-----------------|-----------------|
D|-----------------|-----------------|-----------------|-----------------|
A|---5-----5-------|-----------------|-----------------|-----------------|
D|-----6-6---6-6-6-|-----------------|-----------------|-----------------|






   E E E E E E E E   E E E E E E E E   E E E E E E E E   E E E E E E E E
E|-----------------|-----------------|-----------------|-----------------|
B|-----------------|-----------------|-----------------|-----------------|
G|-----------------|-----------------|-----------------|-----------------|
D|-----------------|-----------------|-----------------|-----------------|
A|-----------------|-----------------|-----------------|-----------------|
D|-8-8-8-8-8-8-8-8-|-7-7-7-7-7-7-7-7-|-7-7-7-7-7-7-7-7-|-6-6-6-6-6-6-6-6-|
 |
 |
 |
 |
 |
 |
E|-----------------|-----------------|-----------------|-----------------|
B|-----------------|-----------------|-----------------|-----------------|
G|-----------------|-----------------|-----------------|-----------------|
D|-----------------|-----------------|-----------------|-----------------|
A|-----------------|-----------------|-----------------|-----------------|
D|-----------------|-----------------|-----------------|-----------------|






   E E E E E E E E   E E  E  E  E  E  E  E   E  E  E  E  E  E  E  E
E|-----------------|-----------------------|------------------------|
B|-----------------|-----------------------|------------------------|
G|-----------------|-----------------------|------------------------|
D|---------------5+|-5-5--5--5--5--5--5--5-|-5--5--5--5--5--5--5--0+|
A|---5-----5-----5+|-5-5--5--5--5--5--5--5-|-5--5--5--5--5--5--5--0+|
D|-6---6-6-------5+|-5-5--5--5--5--5--5--5-|-5--5--5--5--5--5--5--0+|
 |
 |
 |
 |
 |
 | E E E E E E E E   E E  E  E  E  E  E  E   E  E  E  E  E  E  E  E
E|-----------------|------10----------10---|-10-12-10---------------|
B|-----------------|---------10----------10|----------12-10---------|
G|---------------9+|-9-11-------11-12------|----------------12-11-9+|
D|-----------------|-----------------------|------------------------|
A|---5-----5-------|-----------------------|------------------------|
D|-----6-6---------|-----------------------|------------------------|






   E E  E  E  E  E  E  E   E  E  E  E  E  E  E  E   E E  E  E  E  E  E  E
E|-----------------------|------------------------|-----------------------|
B|-----------------------|------------------------|-----------------------|
G|-----------------------|------------------------|-----------------------|
D|-0-0--0--0--0--0--0--2+|-2--2--2--2--2--2--4--5+|-5-5--5--5--5--5--5--5-|
A|-0-0--0--0--0--0--0--2+|-2--2--2--2--2--2--4--5+|-5-5--5--5--5--5--5--5-|
D|-0-0--0--0--0--0--0--2+|-2--2--2--2--2--2--4--5+|-5-5--5--5--5--5--5--5-|
 |
 |
 |
 |
 |
 | E E  E  E  E  E  E  E   E  E  E  E  E  E  E  E   E E  E  E  E  E  E  E
E|------10----------10---|-10-12-10----10---------|------10----------10---|
B|---------10----------10|----------12----12-10---|---------10----------10|
G|-9-11-------11-12------|----------------------9+|-9-11-------11-12------|
D|-----------------------|------------------------|-----------------------|
A|-----------------------|------------------------|-----------------------|
D|-----------------------|------------------------|-----------------------|






   E  E  E  E  E  E  E  E   E E  E  E  E  E  E  E   E E E E E E E E
E|------------------------|-----------------------|-----------------|
B|------------------------|-----------------------|-----------------|
G|------------------------|-----------------------|-----------------|
D|-5--5--5--5--5--5--5--0+|-0-0--0--0--0--0--0--0-|---8-8-8---8-8-8-|
A|-5--5--5--5--5--5--5--0+|-0-0--0--0--0--0--0--0-|---8-8-8---8-8-8-|
D|-5--5--5--5--5--5--5--0+|-0-0--0--0--0--0--0--0-|---8-8-8---8-8-8-|
 |
 |
 |
 |
 |
 | E  E  E  E  E  E  E  E   E E  E  E  E  E  E  E   E E E E E E E E
E|-10-12-10---------------|------10----------10---|-----------------|
B|----------12-10---------|---------10----------10|-----------------|
G|----------------12-11-9+|-9-11-------11-12------|-----------------|
D|------------------------|-----------------------|---8-8-8---8-8-8-|
A|------------------------|-----------------------|---8-8-8---8-8-8-|
D|------------------------|-----------------------|---8-8-8---8-8-8-|






   W                 H       H         W                 H       H
E|-----------------|---------10------|-----------------|---------10------|
B|-12+-------------|-12--------------|-11+-------------|-11--------------|
G|-----------------|-----------------|-----------------|-----------------|
D|-----------------|-----------------|-----------------|-----------------|
A|-----------------|-----------------|-----------------|-----------------|
D|-----------------|-----------------|-----------------|-----------------|
 |
 |
 |
 |
 |
 | W                 H       H         W                 H       H
E|-----------------|-----------------|-----------------|-----------------|
B|-12+-------------|-12------7-------|-5+--------------|-5-------7-------|
G|-----------------|-----------------|-----------------|-----------------|
D|-----------------|-----------------|-----------------|-----------------|
A|-----------------|-----------------|-----------------|-----------------|
D|-----------------|-----------------|-----------------|-----------------|






   W                 H       H         W                 E E E E E E E E
E|-----------------|---------10------|-----------------|-----------------|
B|-10+-------------|-10--------------|-9---------------|-----------------|
G|-----------------|-----------------|-----------------|-----------------|
D|-----------------|-----------------|-----------------|-----------------|
A|-----------------|-----------------|-----------------|---5-----5-------|
D|-----------------|-----------------|-----------------|-----6-6---6-6-6-|
 |
 |
 |
 |
 |
 | W                 H       H         W                 E E E E E E E E
E|-----------------|-----------------|-----------------|-----------------|
B|-5+--------------|-5-------7-------|-4---------------|-----------------|
G|-----------------|-----------------|-----------------|-----------------|
D|-----------------|-----------------|-----------------|-----------------|
A|-----------------|-----------------|-----------------|---5-----5-------|
D|-----------------|-----------------|-----------------|-----6-6---6-6-6-|






   E E E E E E E E   E E E E E E E E   E E E E E E E E   E E E E E E E E
E|-----------------|-----------------|-----------------|-----------------|
B|-----------------|-----------------|-----------------|-----------------|
G|-----------------|-----------------|-----------------|-----------------|
D|-----------------|-----------------|-----------------|-----------------|
A|-----------------|-----------------|-----------------|-----------------|
D|-9-9-9-9-9-9-9-9-|-9-9-9-9-9-9-9-9-|-8-8-8-8-8-8-8-8-|-8-8-8-8-8-8-8-8-|
 |
 |
 |
 |
 |
 | W                                   W
E|-0---------------|-----------------|-0---------------|-----------------|
B|-5---------------|-----------------|-5---------------|-----------------|
G|-7---------------|-----------------|-7---------------|-----------------|
D|-7---------------|-----------------|-6---------------|-----------------|
A|-----------------|-----------------|-----------------|-----------------|
D|-----------------|-----------------|-----------------|-----------------|






   E E E E E E E E   E E E E E E E E   E E E E E E E E   E E E E E E E E
E|-----------------|-----------------|-----------------|-----------------|
B|-----------------|-----------------|-----------------|-----------------|
G|-----------------|-----------------|-----------------|-----------------|
D|-----------------|-----------------|-----------------|-----------------|
A|-----------------|-----------------|-----------------|---5-----5-------|
D|-7-7-7-7-7-7-7-7-|-7-7-7-7-7-7-7-7-|-6-6-6-6-6-6-6-6-|-6---6-6---6-6-6-|
 |
 |
 |
 |
 |
 | W                                   E E E Q   Q   E   E E E E E E E E
E|-0---------------|-----------------|-------0---------|-----------------|
B|-5---------------|-----------------|-----3-----3-----|-----------------|
G|-6---------------|-----------------|---1-----------1+|-1---------------|
D|-7---------------|-----------------|-2---------------|-----------------|
A|-----------------|-----------------|-----------------|---5-----5-------|
D|-----------------|-----------------|-----------------|-----6-6---6-6-6-|






   E E E E E E E E   E E E E E E E E   E E E E E E E E   E E E E E E E E
E|-----------------|-----------------|-----------------|-----------------|
B|-----------------|-----------------|-----------------|-----------------|
G|-----------------|-----------------|-----------------|-----------------|
D|-----------------|-----------------|-----------------|-----------------|
A|-----------------|-----------------|-----------------|-----------------|
D|-9-9-9-9-9-9-9-9-|-9-9-9-9-9-9-9-9-|-8-8-8-8-8-8-8-8-|-8-8-8-8-8-8-8-8-|
 |
 |
 |
 |
 |
 | E E E E E E E E   E E E E E E E E   E E E E E E E E   E E E E E E E E
E|-----------------|-----------------|-----------------|-----------------|
B|-----------------|-----------------|-----------------|-----------------|
G|-4-4-4-4-6-6-6-6-|-7-7-7-7-9-9-9-9-|-4-4-4-4-6-6-6-6-|-7-7-7-7-9-9-9-9-|
D|-----------------|-----------------|-----------------|-----------------|
A|-2-2-2-2-4-4-4-4-|-5-5-5-5-7-7-7-7-|-2-2-2-2-4-4-4-4-|-5-5-5-5-7-7-7-7-|
D|-----------------|-----------------|-----------------|-----------------|






   E E E E E  E  E  E   E E E E E E E E   E E E E E E E E   E E E E E E E E
E|--------------------|-----------------|-----------------|-----------------|
B|--------------------|-----------------|-----------------|-----------------|
G|--------------------|-----------------|-----------------|-----------------|
D|--------------------|-----------------|-----------------|---------------5+|
A|--------------------|-----------------|-----------------|---5-----5-----5+|
D|-7-7-7-7-7--7--7--7-|-7-7-7-7-7-7-7-7-|-6-6-6-6-6-6-6-6-|-6---6-6-------5+|
 |
 |
 |
 |
 |
 | E E E E E  E  E  E   E E E E E E E E   E E E H       E   E E E E E E E E
E|--------------------|-----------------|-----------------|-----------------|
B|--------------------|-----------------|-----------------|-----------------|
G|-2-2-2-2-11-11-11-11|-9-9-9-9-7-7-7-9-|-----------------|---------------9+|
D|--------------------|-----------------|-6-7-6-4---------|-----------------|
A|-0-0-0-0-9--9--9--9-|-7-7-7-7-5-5-5-5-|-----------------|---5-----5-------|
D|--------------------|-----------------|-----------------|-----6-6---------|






   E E  E  E  E  E  E  E   E  E  E  E  E  E  E  E   E E  E  E  E  E  E  E
E|-----------------------|------------------------|-----------------------|
B|-----------------------|------------------------|-----------------------|
G|-----------------------|------------------------|-----------------------|
D|-5-5--5--5--5--5--5--5-|-5--5--5--5--5--5--5--0+|-0-0--0--0--0--0--0--2+|
A|-5-5--5--5--5--5--5--5-|-5--5--5--5--5--5--5--0+|-0-0--0--0--0--0--0--2+|
D|-5-5--5--5--5--5--5--5-|-5--5--5--5--5--5--5--0+|-0-0--0--0--0--0--0--2+|
 |
 |
 |
 |
 |
 | E E  E  E  E  E  E  E   E  E  E  E  E  E  E  E   E E  E  E  E  E  E  E
E|------10----------10---|-10-12-10---------------|------10----------10---|
B|---------10----------10|----------12-10---------|---------10----------10|
G|-9-11-------11-12------|----------------12-11-9+|-9-11-------11-12------|
D|-----------------------|------------------------|-----------------------|
A|-----------------------|------------------------|-----------------------|
D|-----------------------|------------------------|-----------------------|






   E  E  E  E  E  E  E  E   E E  E  E  E  E  E  E   E  E  E  E  E  E  E  E
E|------------------------|-----------------------|------------------------|
B|------------------------|-----------------------|------------------------|
G|------------------------|-----------------------|------------------------|
D|-2--2--2--2--2--2--4--5+|-5-5--5--5--5--5--5--5-|-5--5--5--5--5--5--5--0+|
A|-2--2--2--2--2--2--4--5+|-5-5--5--5--5--5--5--5-|-5--5--5--5--5--5--5--0+|
D|-2--2--2--2--2--2--4--5+|-5-5--5--5--5--5--5--5-|-5--5--5--5--5--5--5--0+|
 |
 |
 |
 |
 |
 | E  E  E  E  E  E  E  E   E E  E  E  E  E  E  E   E  E  E  E  E  E  E  E
E|-10-12-10----10---------|------10----------10---|-10-12-10---------------|
B|----------12----12-10---|---------10----------10|----------12-10---------|
G|----------------------9+|-9-11-------11-12------|----------------12-11-9+|
D|------------------------|-----------------------|------------------------|
A|------------------------|-----------------------|------------------------|
D|------------------------|-----------------------|------------------------|






   E E  E  E  E  E  E  E   E  E  E  E  E  E  E  E   E E  E  E  E  E  E  E
E|-----------------------|------------------------|-----------------------|
B|-----------------------|------------------------|-----------------------|
G|-----------------------|------------------------|-----------------------|
D|-0-0--0--0--0--0--0--2+|-2--2--2--2--2--2--4--5+|-5-5--5--5--5--5--5--5-|
A|-0-0--0--0--0--0--0--2+|-2--2--2--2--2--2--4--5+|-5-5--5--5--5--5--5--5-|
D|-0-0--0--0--0--0--0--2+|-2--2--2--2--2--2--4--5+|-5-5--5--5--5--5--5--5-|
 |
 |
 |
 |
 |
 | E E  E  E  E  E  E  E   E  E  E  E  E  E  E  E   E E  E  E  E  E  E  E
E|------10----------10---|-10-12-10----10---------|------10----------10---|
B|---------10----------10|----------12----12-10---|---------10----------10|
G|-9-11-------11-12------|----------------------9+|-9-11-------11-12------|
D|-----------------------|------------------------|-----------------------|
A|-----------------------|------------------------|-----------------------|
D|-----------------------|------------------------|-----------------------|






   E  E  E  E  E  E  E  E   E E  E  E  E  E  E  E   E  E  E  E  E  E  E  E
E|------------------------|-----------------------|------------------------|
B|------------------------|-----------------------|------------------------|
G|------------------------|-----------------------|------------------------|
D|-5--5--5--5--5--5--5--0+|-0-0--0--0--0--0--0--2+|-2--2--2--2--2--2--4--4-|
A|-5--5--5--5--5--5--5--0+|-0-0--0--0--0--0--0--2+|-2--2--2--2--2--2--4--4-|
D|-5--5--5--5--5--5--5--0+|-0-0--0--0--0--0--0--2+|-2--2--2--2--2--2--4--4-|
 |
 |
 |
 |
 |
 | E  E  E  E  E  E  E  E   E E  E  E  E  E  E  E   E  E  E  E  E  E  E  E
E|-10-12-10---------------|------10----------10---|-10-12-10---------------|
B|----------12-10---------|---------10----------10|----------12-10---------|
G|----------------12-11-9+|-9-11-------11-12------|----------------12-11-9+|
D|------------------------|-----------------------|------------------------|
A|------------------------|-----------------------|------------------------|
D|------------------------|-----------------------|------------------------|






   E E  E  E  E  E  E  E   E  E  E  E  S  S S  SE  E   E E  E  E  E  E  E  E
E|-----------------------|---------------------------|-----------------------|
B|-----------------------|---------------------------|-----------------------|
G|-----------------------|---------------------------|-----------------------|
D|-5-5--5--5--5--5--5--5-|-5--5--5--5--5--5-5--5---0+|-0-0--0--0--0--0--0--0-|
A|-5-5--5--5--5--5--5--5-|-5--5--5--5--5--5-5--5---0+|-0-0--0--0--0--0--0--0-|
D|-5-5--5--5--5--5--5--5-|-5--5--5--5--5--5-5--5---0+|-0-0--0--0--0--0--0--0-|
 |
 |
 |
 |
 |
 | E E  E  E  E  E  E  E   E  E  E  E  E    E   E  E   E E  E  E  E  E  E  E
E|------10----------10---|-10-12-10------------------|------10----------10---|
B|---------10----------10|----------12-10------------|---------10----------10|
G|-9-11-------11-12------|------------------12--11-9+|-9-11-------11-12------|
D|-----------------------|---------------------------|-----------------------|
A|-----------------------|---------------------------|-----------------------|
D|-----------------------|---------------------------|-----------------------|






   E E E E E E E E   E E E E Q   Q     E E E E E E E E   E E E E Q   Q
E|-----------------|-----------------|-----------------|-----------------|
B|-----------------|-----------------|-----------------|-----------------|
G|-----------------|---4-4-4-4-------|-----------------|---4-4-4-4-------|
D|---8---8---8---8-|---2-2-2-2-------|---5-5-5-5-4-4-4-|---2-2-2-2-------|
A|---8---8---8---8-|---2-2-2-2-------|---5-5-5-5-4-4-4-|---2-2-2-2-------|
D|---8---8---8---8-|-----------------|---5-5-5-5-4-4-4-|-----------------|
 |
 |
 |
 |
 |
 | E E E E E E E E
E|-----------------|-----------------|-----------------|-----------------|
B|-----------------|-----------------|-----------------|-----------------|
G|-----------------|-----------------|-----------------|-----------------|
D|---8---8---8---8-|-----------------|-----------------|-----------------|
A|---8---8---8---8-|-----------------|-----------------|-----------------|
D|---8---8---8---8-|-----------------|-----------------|-----------------|






   E E E E E E E E   E E E E Q   Q     E E E E E E E E   E E E E E Q   E
E|-----------------|-----------------|-----------------|-----------------|
B|-----------------|-----------------|-----------------|-----------------|
G|-----------------|---4-4-4-4-------|-----------------|-----------------|
D|---5-5-5-5-4-4-4-|---2-2-2-2-------|---5-5-5-5-4---2+|-2-2-2-2-2-0---2-|
A|---5-5-5-5-4-4-4-|---2-2-2-2-------|---5-5-5-5-4---2+|-2-2-2-2-2-0---2-|
D|---5-5-5-5-4-4-4-|-----------------|---5-5-5-5-4---2+|-2-2-2-2-2-0---2-|
 |
 |
 |
 |
 |
 |                   E E E E Q   Q     E E E E E E E E   E E E E E Q   E
E|-----------------|-----------------|-----------------|-----------------|
B|-----------------|-----------------|-----------------|-----------------|
G|-----------------|---4-4-4-4-------|-----------------|-----------------|
D|-----------------|---2-2-2-2-------|---5-5-5-5-4---2+|-2-2-2-2-2-0---2-|
A|-----------------|---2-2-2-2-------|---5-5-5-5-4---2+|-2-2-2-2-2-0---2-|
D|-----------------|-----------------|---5-5-5-5-4---2+|-2-2-2-2-2-0---2-|






   E E E E E E E E   E E E E Q   Q     E E E E E E E E   E E E E Q   Q
E|-----------------|-----------------|-----------------|-----------------|
B|-----------------|-----------------|-----------------|-----------------|
G|-----------3-3-3-|---4-4-4-4-------|-----------------|---4-4-4-4-------|
D|---5-5-5-5-3-3-3-|---2-2-2-2-------|---5-5-5-5-4-4-4-|---2-2-2-2-------|
A|---5-5-5-5-1-1-1-|---2-2-2-2-------|---5-5-5-5-4-4-4-|---2-2-2-2-------|
D|---5-5-5-5-------|-----------------|---5-5-5-5-4-4-4-|-----------------|
 |
 |
 |
 |
 |
 | E E E E E E E E   E E E E E E Q     E E E E E E E E   E E E E E E Q
E|-----------------|-----------------|-----------------|-----------------|
B|-----------------|-----------------|-----------------|-----------------|
G|-----------3-3-3-|---7-7-7-7-------|-----------------|---7-7-7-7-------|
D|---5-5-5-5-3-3-3-|-----------------|---9-9-9-9-8-8-8-|-----------------|
A|---5-5-5-5-1-1-1-|-----------------|-----------------|-----------------|
D|---5-5-5-5-------|-----------------|-----------------|-----------------|






   E E E E E E E E   E E E E Q   Q     E E E E E E E E   E E E E Q   Q
E|-----------------|-----------------|-----------------|-----------------|
B|-----------------|-----------------|-----------------|-----------------|
G|-----------------|---4-4-4-4-------|-----------------|---4-4-4-4-------|
D|---5-5-5-5-4-4-4-|---2-2-2-2-------|---5-5-5-5-4-4-4-|---2-2-2-2-------|
A|---5-5-5-5-4-4-4-|---2-2-2-2-------|---5-5-5-5-4-4-4-|---2-2-2-2-------|
D|---5-5-5-5-4-4-4-|-----------------|---5-5-5-5-4-4-4-|-----------------|
 |
 |
 |
 |
 |
 | E E E E E E E E   E E E E E E Q     E E E E E E E E   E E E E E E Q
E|-----------------|-----------------|-----------------|-----------------|
B|-----------------|-----------------|-----------------|-----------------|
G|-----------------|---7-7-7-7-------|-----------------|---7-7-7-7-------|
D|---9-9-9-9-8-8-8-|-----------------|---9-9-9-9-8-8-8-|-----------------|
A|-----------------|-----------------|-----------------|-----------------|
D|-----------------|-----------------|-----------------|-----------------|






   E E E E E E E E   W                 H       E E E E   E E E E E E E E
E|-----------------|-----------------|-----------------|-----------------|
B|-----------------|-----------------|-----------------|-----------------|
G|-----------------|-----------------|-----------------|-----------------|
D|---5-5-5-5-4-4-4-|-0+--------------|-0-------0-0-----|-0-0-0-0-0-0-0-2+|
A|---5-5-5-5-4-4-4-|-0+--------------|-0-------0-0-----|-0-0-0-0-0-0-0-2+|
D|---5-5-5-5-4-4-4-|-0+--------------|-0-------0-0-----|-0-0-0-0-0-0-0-2+|
 |
 |
 |
 |
 |
 | E E E E E E E E   W                 H       E E E E   E E E E E E E E
E|-----------------|-5+--------------|-5---------------|-----------------|
B|-----------------|-3+--------------|-3---------------|-----------------|
G|-----------------|-2+--------------|-2---------------|-----------------|
D|---9-9-9-9-8-8-8-|-0+--------------|-0-------0-0-----|-0-0-0-0-0-0-0-2+|
A|-----------------|-----------------|---------0-0-----|-0-0-0-0-0-0-0-2+|
D|-----------------|-----------------|---------0-0-----|-0-0-0-0-0-0-0-2+|






   E E E E E E E E   E E E E E E E E   E E E E E E E E   E E E E E E E E
E|-----------------|-----------------|-----------------|-----------------|
B|-----------------|-----------------|-----------------|-----------------|
G|-----------------|-----------------|-----------------|-----------------|
D|-2-2-2-2-2-2-4-5+|-5-5-5-5-5-5-5-5-|-5-5-5-5-5-5-5-0+|-0-0-0-0-0-0-0-2+|
A|-2-2-2-2-2-2-4-5+|-5-5-5-5-5-5-5-5-|-5-5-5-5-5-5-5-0+|-0-0-0-0-0-0-0-2+|
D|-2-2-2-2-2-2-4-5+|-5-5-5-5-5-5-5-5-|-5-5-5-5-5-5-5-0+|-0-0-0-0-0-0-0-2+|
 |
 |
 |
 |
 |
 | E E E E E E E E   E E E E E E E E   E E E E E E E E   E E E E E E E E
E|-----------------|-----------------|-----------------|-----------------|
B|-----------------|-----------------|-----------------|-----------------|
G|-----------------|-----------------|-----------------|-----------------|
D|-2-2-2-2-2-2-4-5+|-5-5-5-5-5-5-5-5-|-5-5-5-5-5-5-5-0+|-0-0-0-0-0-0-0-2+|
A|-2-2-2-2-2-2-4-5+|-5-5-5-5-5-5-5-5-|-5-5-5-5-5-5-5-0+|-0-0-0-0-0-0-0-2+|
D|-2-2-2-2-2-2-4-5+|-5-5-5-5-5-5-5-5-|-5-5-5-5-5-5-5-0+|-0-0-0-0-0-0-0-2+|






   E E E E E E E E   E E E E E E E E   E E E E E E E E   E E E E E E E E
E|-----------------|-----------------|-----------------|-----------------|
B|-----------------|-----------------|-----------------|-----------------|
G|-----------------|-----------------|-----------------|-----------------|
D|-2-2-2-2-2-2-4-5+|-5-5-5-5-5-5-5-5-|-5-5-5-5-5-5-5-0+|-0-0-0-0-0-0-0-2+|
A|-2-2-2-2-2-2-4-5+|-5-5-5-5-5-5-5-5-|-5-5-5-5-5-5-5-0+|-0-0-0-0-0-0-0-2+|
D|-2-2-2-2-2-2-4-5+|-5-5-5-5-5-5-5-5-|-5-5-5-5-5-5-5-0+|-0-0-0-0-0-0-0-2+|
 |
 |
 |
 |
 |
 | E E E E E E E E   E E E E E E E E   E E E E E E E E   E E E E E E E E
E|-----------------|-----------------|-----------------|-----------------|
B|-----------------|-----------------|-----------------|-----------------|
G|-----------------|-----------------|-----------------|-----------------|
D|-2-2-2-2-2-2-4-5+|-5-5-5-5-5-5-5-5-|-5-5-5-5-5-5-5-0+|-0-0-0-0-0-0-0-2+|
A|-2-2-2-2-2-2-4-5+|-5-5-5-5-5-5-5-5-|-5-5-5-5-5-5-5-0+|-0-0-0-0-0-0-0-2+|
D|-2-2-2-2-2-2-4-5+|-5-5-5-5-5-5-5-5-|-5-5-5-5-5-5-5-0+|-0-0-0-0-0-0-0-2+|






   E E E E E E E E   E E E E E E E E   E E E E S S S S E E   E E E E E E E E
E|-----------------|-----------------|---------------------|-----------------|
B|-----------------|-----------------|---------------------|-----------------|
G|-----------------|-----------------|---------------------|-----------------|
D|-2-2-2-2-2-2-4-4-|-5-5-5-5-5-5-5-5-|-5-5-5-5-5-5-5-5-5-0+|-0-0-0-0-0-0-0-0-|
A|-2-2-2-2-2-2-4-4-|-5-5-5-5-5-5-5-5-|-5-5-5-5-5-5-5-5-5-0+|-0-0-0-0-0-0-0-0-|
D|-2-2-2-2-2-2-4-4-|-5-5-5-5-5-5-5-5-|-5-5-5-5-5-5-5-5-5-0+|-0-0-0-0-0-0-0-0-|
 |
 |
 |
 |
 |
 | E E E E E E E E   E E E E E E E E   E E E E S S S S E E   E E E E E E E E
E|-----------------|-----------------|---------------------|-----------------|
B|-----------------|-----------------|---------------------|-----------------|
G|-----------------|-----------------|---------------------|-----------------|
D|-2-2-2-2-2-2-4-4-|-5-5-5-5-5-5-5-5-|-5-5-5-5-5-5-5-5-5-0+|-0-0-0-0-0-0-0-0-|
A|-2-2-2-2-2-2-4-4-|-5-5-5-5-5-5-5-5-|-5-5-5-5-5-5-5-5-5-0+|-0-0-0-0-0-0-0-0-|
D|-2-2-2-2-2-2-4-4-|-5-5-5-5-5-5-5-5-|-5-5-5-5-5-5-5-5-5-0+|-0-0-0-0-0-0-0-0-|






   E E E E E E E E   E   E E E E E E E   E E E E E  E E E   E   E E E E E E E
E|-----------------|-------------------|------------------|-------------------|
B|-----------------|-------------------|------------------|-------------------|
G|-----------------|-------------------|------------------|-------------------|
D|---8-8-8---8-8-8-|-9---9-9-9-----9-9-|-9-------9--9-9---|-8---8-8-8-----8-8-|
A|---8-8-8---8-8-8-|-9---9-9-9-----9-9-|-9-------9--9-9---|-8---8-8-8-----8-8-|
D|---8-8-8---8-8-8-|-9---9-9-9-----9-9-|-9-------9--9-9---|-8---8-8-8-----8-8-|
 |
 |
 |
 |
 |
 | E E E E E E E E   W                   H       H          W
E|-----------------|-------------------|---------10-------|-------------------|
B|-----------------|-12+---------------|-12---------------|-11+---------------|
G|-----------------|-------------------|---------7--------|-------------------|
D|---8-8-8---8-8-8-|-9-----------------|-9----------------|-8-----------------|
A|---8-8-8---8-8-8-|-------------------|------------------|-------------------|
D|---8-8-8---8-8-8-|-------------------|------------------|-------------------|






   E E E E E  E E E   E   E E E E E E E   E E E E E  E E E   E  E E E E E E E
E|------------------|-------------------|------------------|------------------|
B|------------------|-------------------|------------------|------------------|
G|------------------|-------------------|------------------|------------------|
D|-8-------8--8-8---|-7---7-7-7-----7-7-|-7-------7--7-7---|-6--6-6-6-----6-6-|
A|-8-------8--8-8---|-7---7-7-7-----7-7-|-7-------7--7-7---|-6--6-6-6-----6-6-|
D|-8-------8--8-8---|-7---7-7-7-----7-7-|-7-------7--7-7---|-6--6-6-6-----6-6-|
 |
 |
 |
 |
 |
 | H       H          W                   H       H          W
E|---------10-------|-------------------|---------10-------|------------------|
B|-11---------------|-10+---------------|-10---------------|-9+---------------|
G|---------7--------|-------------------|---------7--------|------------------|
D|-8----------------|-7-----------------|-7----------------|-6+---------------|
A|------------------|-------------------|------------------|------------------|
D|------------------|-------------------|------------------|------------------|






   E E E E E E  E E   E   E E E E E E E   E E E E E  E E E   E   E E E E E E E
E|------------------|-------------------|------------------|-------------------|
B|------------------|-------------------|------------------|-------------------|
G|------------------|-------------------|------------------|-------------------|
D|-6-------0-0--0-0-|-9---9-9-9-----9-9-|-9-------9--9-9---|-8---8-8-8-----8-8-|
A|-6-------0-0--0-0-|-9---9-9-9-----9-9-|-9-------9--9-9---|-8---8-8-8-----8-8-|
D|-6-------0-0--0-0-|-9---9-9-9-----9-9-|-9-------9--9-9---|-8---8-8-8-----8-8-|
 |
 |
 |
 |
 |
 | H       E E  E E   W                   H       H          W
E|------------------|-------------------|---------10-------|-------------------|
B|-9-------9-10-9---|-12+---------------|-12---------------|-11+---------------|
G|------------------|-------------------|---------7--------|-------------------|
D|-6-------6-7--6---|-9-----------------|-9----------------|-8-----------------|
A|------------------|-------------------|------------------|-------------------|
D|------------------|-------------------|------------------|-------------------|






   E E E E E  E E E   E   E E E E E E E   E E E E E  E E E   E E E E E E E E
E|------------------|-------------------|------------------|-----------------|
B|------------------|-------------------|------------------|-----------------|
G|------------------|-------------------|------------------|-----------------|
D|-8-------8--8-8---|-7---7-7-7-----7-7-|-7-------7--7-7---|-6-6-6-6-----6-6-|
A|-8-------8--8-8---|-7---7-7-7-----7-7-|-7-------7--7-7---|-6-6-6-6-----6-6-|
D|-8-------8--8-8---|-7---7-7-7-----7-7-|-7-------7--7-7---|-6-6-6-6-----6-6-|
 |
 |
 |
 |
 |
 | H       H          W                   H       H          H       E E E E
E|---------10-------|-------------------|---------10-------|-----------------|
B|-11---------------|-10+---------------|-10---------------|-9---------------|
G|---------7--------|-------------------|---------7--------|-----------------|
D|-8----------------|-7-----------------|-7----------------|-6-----------6-6-|
A|------------------|-------------------|------------------|-------------6-6-|
D|------------------|-------------------|------------------|-------------6-6-|






   E E Q   H
E|-----------------|
B|-----------------|
G|-----------------|
D|-6-6-------------|
A|-6-6-------------|
D|-6-6-------------|
 |
 |
 |
 |
 |
 | E E Q   H
E|-----------------|
B|-----------------|
G|-----------------|
D|-6-6-------------|
A|-6-6-------------|
D|-6-6-------------|





Comments


Popular Attack Attack tabs & chords
Dr Shavargo Part 3 Bass Tabs
Were Not The Enemy Bass Tabs
A For Andrew Tabs
I Swear Ill Change Tabs
Interlude 1 Tabs
Last Breath Tabs
The Family Tabs
The Wretched Tabs
You And Me Tabs
I Swear Ill Change Ukulele


Song lyrics



↑ Back to top | Tablatures and chords are parodies/interpretations of the original songs. You may use it for private study, scholarship, research or language learning purposes only
© 2014 AZChords.com Contact us | Privacy policy | DMCA | Add/correct tabs | Request tabs | Top 50 tabs