» » »

Attack Attack, Catfish Soup Tabs (ver.1)

Artists:  A B C D E F G H I J K L M N O P Q R S T U V W X Y Z # 

Catfish Soup Tabs (ver.1)

Attack Attack Tabs
 Rating:
4.4/5 (7 votes)
Catfish Soup lessons Tabs too difficult? Try these video lessons and learn fast
                Attack Attack! - Catfish Soup
Tuning: Drop C#

Watch my cover!
Commnet, rate, subscribe!

Intro:
eb|-----------------------------------------|
Bb|-----------------------------------------|
Gb|-------------------10-10-10-10-10-10-----|
Db|--0-0-0-0-0-0-0-0--x--x--x--x--x--x---0~-|
Ab|--0-0-0-0-0-0-0-0--8--8--8--8--8--8---0~-|
Db|--0-0-0-0-0-0-0-0---------------------0~-|

Verse:
eb|--------------------------------------|
Bb|----6-6-6-6-6-------------------------|
Gb|----9===gb==10------------------------| 2x
Db|--0--------------------0-----0-8/0~---|
Ab|--0--------------------0-7~--0-8/0~---|
Db|--0------------0-0h3h5-0-----0-8/0~---|
     .                    .

eb|--------------------------------------|
Bb|----11-11-11-11-11--------------------|
Gb|----14====gb====15--------------------| 2x
Db|--0--------------------0-----0-8/0~---|
Ab|--0--------------------0-7~--0-8/0~---|
Db|--0------------0-0h3h5-0-----0-8/0~---|
     .                    .

Chorus:
eb|-------------------------------------------------------------------|
Bb|-------------------------------------------------------------------|
Gb|--7-7-7-7--10-10-10-10--12-12-12--12-12--10-10-10--10-10--9-9-9-9--|
Db|--x-x-x-x--x--x--x--x---x--x--x---x--x---x--x--x---x--x---x-x-x-x--|
Ab|--5-5-5-5--8--8--8--8---10-10-10--10-10--8--8--8---8--8---7-7-7-7--|
Db|-------------------------------------------------------------------|

eb|-------------------------------------------------------------------|
Bb|-------------------------------------------------------------------|
Gb|--7-7-7--10-10-10--12-12-12--12-12--10-10-10--10-10--9-9-9-10-10-10|
Db|--x-x-x--x--x--x---x--x--x---x--x---x--x--x---x--x---x-x-x-x--x--x-|
Ab|--5-5-5--8--8--8---10-10-10--10-10--8--8--8---8--8---7-7-7-8--8--8-|
Db|-------------------------------------------------------------------|

Verse:
eb|------|-------------------|
Bb|------|-------------------|
Gb|------|-------------------|4x
Db|--0~--|--0-0-000--000-000-|
Ab|--0~--|--0-0-000--000-000-|
Db|--0~--|--0-0-000--000-000-|
            . . ...  ... ...

Breakdown:

(Piano Part)

Then...
eb|---------|----------------------------------|
Bb|---------|-------6~----6~----6~----6~-------|
Gb|---------|-9~------9~----9~----9~-----------|
Db|--0~---0~|---7~------7~----7~----7~---------|
Ab|--0~---0~|----------------------------------|
Db|--0~---0~|----------------------------------|

eb|-----------------------------------------------------------|
Bb|----------------6-6----------------------------------------|
Gb|----------------9-9--------------7-7-7-7-7-7--6-6-6-6-6-6--| 4x
Db|--000-000-7p0-0-----000-000-000--x-x-x-x-x-x--x-x-x-x-x-x--|
Ab|--000-000-----0-----000-000-000--5-5-5-5-5-5--4-4-4-4-4-4--|
Db|--000-000-----0-----000-000-000----------------------------|
     ... ...     .     ... ... ...

Chorus:
eb|-------------------------------------------------------------------|
Bb|-------------------------------------------------------------------|
Gb|--7-7-7-7--10-10-10-10--12-12-12--12-12--10-10-10--10-10--9-9-9-9--|
Db|--x-x-x-x--x--x--x--x---x--x--x---x--x---x--x--x---x--x---x-x-x-x--|
Ab|--5-5-5-5--8--8--8--8---10-10-10--10-10--8--8--8---8--8---7-7-7-7--|
Db|-------------------------------------------------------------------|

eb|-------------------------------------------------------------------|
Bb|-------------------------------------------------------------------|
Gb|--7-7-7--10-10-10--12-12-12--12-12--10-10-10--10-10--9-9-9-10-10-10|
Db|--x-x-x--x--x--x---x--x--x---x--x---x--x--x---x--x---x-x-x-x--x--x-|
Ab|--5-5-5--8--8--8---10-10-10--10-10--8--8--8---8--8---7-7-7-8--8--8-|
Db|-------------------------------------------------------------------|

Outro:
eb|--------------|
Bb|--------6-----|
Gb|--------9-----| let it ring out at the end.
Db|--8-5-0---0~--|
Ab|--8-5-0---0~--|
Db|--8-5-0---0~--|
             .

Watch my cover!

| /  slide up
| \  slide down
| h  hammer-on
| p  pull-off
| ~  vibrato
| +  harmonic
| x  Mute note
=============================================================================
            
Submit corrections

comments powered by Disqus
↑ Back to top | Attack Attack Tabs for Catfish Soup. Lyrics for acoustic guitar and electric guitar. Tablatures and chords are parodies/interpretations of the original songs. You may use it for private study, scholarship, research or language learning purposes only