» » »

Attack Attack, Bro, Ashley's Here Bass tabs (ver.1)

Artists:  A B C D E F G H I J K L M N O P Q R S T U V W X Y Z # 

Bro, Ashley's Here Bass tabs (ver.1)

Attack Attack Tabs
Rating:
0/5 (0 votes)
Bro, Ashley's Here lessons Tabs too difficult? Try these video lessons and learn fast
                this is my first tab ever so plz go easy on me thank you and enjoy!

no bass in the beginning

(:30)
G|---------------------------------------------------------------|
D|---------------------------------------------------------------|
A|---------------------------------------------------------------|
E|00330033003333003300333333-0033003300333300330033333333--------|
(:40)
G|---------------------------------------------------------------|
D|---------------------------------------------------------------|
A|---------------------------------------------------------------|
E|8888888888888888101010101010101055555555-----------------------|
                                                                  
G|---------------------------------------------------------------|
D|---------------------------------------------------------------|
A|---------------------------------------------------------------|
E|888888888888888810101010101010101010101010101010---------------|
(:50)
G|---------------------------------------------------------------|
D|---------------------------------------------------------------|
A|---------------------------------------------------------------|
E|8--8-8-8-8-8-8-8-8-101010101010101055555555--------------------|

G|---------------------------------------------------------------|
D|---------------------------------------------------------------|
A|---------------------------------------------------------------|
E|8--8-8-8-8-8-8-8-8-101010101010101010101010101010101010--------|
(1:03)
G|---------------------------------------------------------------|
D|---------------------------------------------------------------|
A|---------------------------------------------------------------|
E|00-000-000-00002233-333-333-3337788-888-888-888775555555533333333-|x2
(1:23)
G|---------------------------------------------------------------|
D|---------------------------------------------------------------|
A|---------------------------------------------------------------|
E|000000-00-00-00-0000-000000-000000-00-00-00-0000-000003--------|

G|---------------------------------------------------------------|
D|---------------------------------------------------------------|
A|---------------------------------------------------------------|
E|000000-00-00-00-0000-000000-000000-00-00-00-0000-000000--------|
(1:37)
G|---------------------------------------------------------------|
D|---------------------------------------------------------------|
A|---------------------------------------------------------------|
E|0~---0-0~---0---0-0--0~---0~----0~----0-0-0-0-0-0-0-0-0-0-0-0-0-0-0-0-|
(1:57)
G|---------------------------------------------------------------|
D|---------------------------------------------------------------|
A|---------------------------------------------------------------|
E|0000000000000000333333333333333388888888888888881010101010101010-|x2
(2:24)
G|---------------------------------------------------------------|
D|---------------------------------------------------------------|
A|---------------------------------------------------------------|
E|0~----8--8-8-8-8-8-8-8-8-101010101010101055555555--------------|

G|---------------------------------------------------------------|
D|---------------------------------------------------------------|
A|---------------------------------------------------------------|
E|8---8-8-8-8-8-8-10101010101010101010---------------------------|
(2:37)
G|---------------------------------------------------------------|
D|---------------------------------------------------------------|
A|---------------------------------------------------------------|
E|8--8-8-8-8-8-8-8-8-101010101010101055555555--------------------|

G|---------------------------------------------------------------|
D|---------------------------------------------------------------|
A|---------------------------------------------------------------|
E|8--8-8-8-8-8-8-8-8-101010101010101010101010101010101010~-------|
(2:47)
G|---------------------------------------------------------------|
D|---------------------------------------------------------------|
A|---------------------------------------------------------------|
E|0~----0-0~----0/12---12\0--------------------------------------|x4

G|---------------------------------------------------------------|
D|---------------------------------------------------------------|
A|---------------------------------------------------------------|
E|0~~~~~~~~~~~~~~~~~~--------------------------------------------|
            

comments powered by Disqus
↑ Back to top | Attack Attack Bass for Bro, Ashley's Here. Lyrics for acoustic guitar and electric guitar. Tablatures and chords are parodies/interpretations of the original songs. You may use it for private study, scholarship, research or language learning purposes only