» » »

Atlas Genius, Trojans Tabs (ver.3)

Artists:  A B C D E F G H I J K L M N O P Q R S T U V W X Y Z # 

Trojans Tabs (ver.3)

Atlas Genius Tabs
Rating:
0/5 (0 votes)
Trojans lessons Tabs too difficult? Try these video lessons and learn fast
                Trojans - Atlas Genius

Taken right from the sirius satellite radio Atlas Genius Live performance

Capo on 7

chords : 

 Am      F*     C*    G*
--0--  --0--  --0-- --0--
--1--  --1--  --1-- --1--
--2--  --2--  --0-- --0--
--2--  --3--  --2-- --0--
--0--  --0--  --3-- --2--
--0--  --0--  --0-- --3--

Intro/Verse

e --------|--------|--------|--------|
B --------|--------|--------|--------|
G --0--0--|--0--0--|--0--0--|--0--0--|
D --------|--------|--------|--------|    
A 0---0-0-|--------|3---3-3-|--------|
E --------|1---1-1-|--------|3---3-3-|

Chorus

Am//// F*//// C*//// G*////  x4


Epop726
            
Submit corrections

comments powered by Disqus
↑ Back to top | Atlas Genius Tabs for Trojans. Lyrics for acoustic guitar and electric guitar. Tablatures and chords are parodies/interpretations of the original songs. You may use it for private study, scholarship, research or language learning purposes only