>
 >
Trojans

Trojans Guitar Tabs

Atlas Genius - Trojans chords, tabs, tablatures, lyrics

Guitar lessons | Add/correct | Request | Top 50 tabs Artists:  A B C D E F G H I J K L M N O P Q R S T U V W X Y Z 0-9

Trojans Guitar Tabs – Atlas Genius

CD, Sheet music, Poster

Do you like Trojans? Share with your friends now
Bass TabsChordsChords v2Chords v3TabsTabs v2Tabs v3Tabs v4Ukulele
Intro:
e|--------------|------------|--------------|------------|
B|-----3----3-3-|---3----3-3-|-----3----3-3-|---3----33--|
G|--------------|--------0-0-|--------------|------------|  X5
D|--2----2------|------------|--5----5------|-0-----0----|    
A|--------------|-3---3------|--------------|------------|
E|--------------|------------|--------------|------------| 

Lick:
e|---3/7-7-7-7---3-|--3/7-7-7-7--3-|--3/7-7-7-7--3-|-3/7-7-7-7--5-|
B|---5/8-8-8-8---5-|--5/8-8-8-8--5-|--5/8-8-8-8--5-|-5/8-8-8-8--7-|
G|-----------------|---------------|---------------|--------------|
D|-----------------|---------------|---------------|--------------|  X3
A|-----------------|---------------|---------------|--------------|
E|-----------------|---------------|---------------|--------------|

Pre-verse:
e|-3--x--3-3-3-3-|-0--x-0-0-0-0-|-3-x-3-3-3-3-|-2-x-2-2-2-2---|
B|-3--x--3-3-3-3-|-1--x-1-1-1-1-|-0-x-0-0-0-0-|-3-x-3-3-3-3---|
G|-0--x--0-0-0-0-|-0--x-0-0-0-0-|-0-x-0-0-0-0-|-2-x-2-2-2-2---|
D|-2--x--2-2-2-2-|-2--x-2-2-2-2-|-0-x-0-0-0-0-|-0-x-0-0-0-0---|
A|---------------|-3--x-3-3-3-3-|-2-x-2-2-2-2-|-0-x-0-0-0-0---|
E|---------------|--------------|-3-x-3-3-3-3-|---------------|

Verse:
e|-3--3-3-3-3-|-3-3-3-3-3-|-3-3-3-3-3-3-|-2-2-2-2-2--|
B|-3--3-3-3-3-|-5-5-5-5-5-|-3-3-3-3-3-3-|-3-3-2-2-2--|
G|-0--0-0-0-0-|-5-5-5-5-5-|-4-4-4-4-4-4-|-2-2-2-2-2--|
D|-2--2-2-2-2-|-5-5-5-5-5-|-5-5-5-5-5-5-|-0-0-0-0-0--|  X3
A|------------|-----------|-------------|-0-0-0-0-0--|
E|------------|-----------|-------------|------------|

Lick X3

Don't really know how to play the bridge

e|-7--|
B|-8--|
G|----|  just keep strumming this until the lick resumes
D|----|
A|----|
E|----|

Lick X3
End: Single chords
e|--3-|--3-|--3-|--2-|--3-|--3-|--3-|--2-|--3-|
B|--3-|--5-|--3-|--3-|--3-|--5-|--3-|--3-|--0-|
G|--0-|--5-|--4-|--2-|--0-|--5-|--4-|--2-|--0-|
D|--2-|--5-|--5-|--0-|--2-|--5-|--5-|--0-|--0-|
A|----|----|----|--0-|----|----|----|--0-|--2-|
E|----|----|----|----|----|----|----|----|--3-|





Comments


Popular Atlas Genius tabs & chords
Trojans Bass Tabs
All These Girls Chords
Trojans 1 Chords
Centred On You Tabs
If So Tabs
Trojans 4 Tabs
If So Ukulele
Symptoms Ukulele
Symptoms 2 Ukulele
Trojans Ukulele


Song lyrics



↑ Back to top | Tablatures and chords are parodies/interpretations of the original songs. You may use it for private study, scholarship, research or language learning purposes only
© 2014 AZChords.com Contact us | Privacy policy | DMCA | Add/correct tabs | Request tabs | Top 50 tabs