» » »

February Tabs (ver.3)

Artists:  A B C D E F G H I J K L M N O P Q R S T U V W X Y Z # 

February Tabs (ver.3)

A Thorn For Every Heart
Rating:
0/5 (0 votes)

Hard to play? Try these video lessons and learn fast.
                This Tab Actually Has The Second Guitar Unlike The Others Out There
So Be Grateful. You Can Figure Out Where Second Guitar Goes



Verse
|----------------------|
|----------------------|
|---6------------------|
|---6-x8--7-----9------| x4
|---4-----7-x4--9-x4---|
|---------5-----7------|


|----------------------|
|----------------------|
|---6------------------|
|---6-x8--7-----9------| x4
|---4-----7-x4--9-x4---|
|---------5-----7------|


|------------------------------------------|
|------------------------------------------|
|---66666--66666--666----------------------|
|---66666--66666--666--77777--99999--999---| x4
|---44444--44444--444--77777--99999--999---|
|----------------------55555--77777--777---|

|----------------------------|
|----------------------------|
|---666----------------------|
|---666-x4--777-----999------| x4
|---444-----777-x2--999-x2---|
|-----------555-----777------|
    ..      ..      ..

CHORUS x4

Interlude
|-----000----000---|
|-----000----000---|
|---6-666--4-444---|
|---6-666--4-444---|
|---4-444--2-222---|
|------------------|

I cant tab the strumming. Figure it out.
|---------------|
|---------------|
|---------------|
|---7---9---4---| x8
|---7---9---4---|
|---5---7---2---|

Ending
|-----------0----------------|
|-----------0----------------|
|-----------4----------------|
|---7-------4-ring--4--------|
|---7-ring--2-------4-ring---|
|---5---------------2--------|

Secong Guitar
Verse
|---------------------------------------------|
|---------------------------------------------|
|13-13-13-13--11-11-11-11--9-9-9-9------------|
|------------------------------------9-9-9-9--|   (x4)
|---------------------------------------------|
|---------------------------------------------|
   This Part Above Is Double Picking

|--------------------|
|--------------------|
|--------------------|
|11-13-13-13h14------|
|--------------------|
|--------------------|


|----------------------------|
|----------------------------|
|8b-8-6-4-6-8b-8-11-9-8------|
|----------------------------|
|----------------------------|
|----------------------------|
Twice Then

|---------------------|
|-------------16------|
|-------16-------16---|
|-14-14----14---------|
|---------------------|
|---------------------|
            
Hard to play? Try these video lessons and learn fast. | Correct




comments powered by Disqus
↑ Back to top | Tablatures and chords are parodies/interpretations of the original songs. You may use it for private study, scholarship, research or language learning purposes only