>
 >
February

February Guitar Tabs

A Thorn For Every Heart - February chords, tabs, tablatures, lyrics

Guitar lessons | Add/correct | Request | Top 50 tabs Artists:  A B C D E F G H I J K L M N O P Q R S T U V W X Y Z 0-9

February Guitar Tabs – A Thorn For Every Heart

CD, Sheet music, Poster

Do you like February? Share with your friends now
TabsTabs v2Tabs v3
----------------------------------------------------------------------------
----------------------------------------------------------------------------



Guitar 1 - DADGDD
Guitar 2 - DADGDD      
Guitar 3 - DADGDD    
Guitar 4 - DADGDD


  
  Guitar 1:
 
|-----------------------------------------------------------------|
|-----------------------------------------------------------------|
|-6-6-6-6-6-6-6-6-2-2-2-2-4-4-4-4-6-6-6-6-6-6-6-6-2-2-2-2-4-4-4-4-|
|-6-6-6-6-6-6-6-6-2-2-2-2-4-4-4-4-6-6-6-6-6-6-6-6-2-2-2-2-4-4-4-4-|
|-4-4-4-4-4-4-4-4-0-0-0-0-2-2-2-2-4-4-4-4-4-4-4-4-0-0-0-0-2-2-2-2-|
|-----------------------------------------------------------------|


 Guitar 2:
|-----------------------------------------------------------------|
|-----------------------------------------------------------------|
|-6-6-6-6-6-6-6-6-2-2-2-2-4-4-4-4-6-6-6-6-6-6-6-6-2-2-2-2-4-4-4-4-|
|-6-6-6-6-6-6-6-6-2-2-2-2-4-4-4-4-6-6-6-6-6-6-6-6-2-2-2-2-4-4-4-4-|
|-4-4-4-4-4-4-4-4-0-0-0-0-2-2-2-2-4-4-4-4-4-4-4-4-0-0-0-0-2-2-2-2-|
|-----------------------------------------------------------------|


    
|--4-4-4-4-------------------------4-4-4-4--------------------------|
|o---------7-7-5-5-4-4-4-4-2-2-2-2---------7-7-5-5-4-4-4-4-2-2-2-2-o|
|-------------------------------------------------------------------|
|-------------------------------------------------------------------|
|o-----------------------------------------------------------------o|
|-------------------------------------------------------------------|

  
|-------------------------------------------------------------------|
|o-----------------------------------------------------------------o|
|--6---6---6---6---6---6---6---6---2---2---2---2---4---4---4---4----|
|--6---6---6---6---6---6---6---6---2---2---2---2---4---4---4---4----|
|o-4---4---4---4---4---4---4---4---0---0---0---0---2---2---2---2---o|
|-------------------------------------------------------------------|


                                
    
  Guitar 1:
|------------------7---5---4---5-------------------7---5---4---5----|
|o-2---4---5---2-------------------2---4---5---2-------------------o|
|-------------------------------------------------------------------|
|-------------------------------------------------------------------|
|o-----------------------------------------------------------------o|
|-------------------------------------------------------------------|

   
  Guitar 2:
|-------------------------------------------------------------------|
|o-----------------------------------------------------------------o|
|--6-6-6-6-6-6-6-6-2-2-2-2-4-4-4-4-6-6-6-6-6-6-6-6-2-2-2-2-4-4-4-4--|
|--6-6-6-6-6-6-6-6-2-2-2-2-4-4-4-4-6-6-6-6-6-6-6-6-2-2-2-2-4-4-4-4--|
|o-4-4-4-4-4-4-4-4-0-0-0-0-2-2-2-2-4-4-4-4-4-4-4-4-0-0-0-0-2-2-2-2-o|
|-------------------------------------------------------------------|



|-----------------7---5---4------|
|-2---4---5---2------------------|
|--------------------------------|
|--------------------------------|
|--------------------------------|
|--------------------------------|


|--------------------------------|
|--------------------------------|
|-6-6-6-6-6-6-6-6-6-6-6-6-6------|
|-6-6-6-6-6-6-6-6-6-6-6-6-6------|
|-4-4-4-4-4-4-4-4-4-4-4-4-4------|
|--------------------------------|


   
|--7-7-7-7-7---7-7-7-7-7---7-7-7-----------------------------------|
|o-5-5-5-5-5---5-5-5-5-5---5-5-5-----------------------------------|
|----------------------------------2-2-2-2-2---4-4-4-4-4---4-4-4-x-|
|----------------------------------2-2-2-2-2---4-4-4-4-4---4-4-4-x-|
|o---------------------------------0-0-0-0-0---2-2-2-2-2---2-2-2-x-|
|------------------------------------------------------------------|

   
|------------------------------------------------------------------|
|o-----------------------------------------------------------------|
|--6-6-6-6-6---6-6-6-6-6---6-6-6---2-2-2-2-2---4-4-4-4-4---4-4-4---|
|--6-6-6-6-6---6-6-6-6-6---6-6-6---2-2-2-2-2---4-4-4-4-4---4-4-4---|
|o-4-4-4-4-4---4-4-4-4-4---4-4-4---0-0-0-0-0---2-2-2-2-2---2-2-2---|
|------------------------------------------------------------------|


  
|-7-7-7-7-7---7-7-7-7-7---7-7-7------------------------------------|
|-5-5-5-5-5---5-5-5-5-5---5-5-5-----------------------------------o|
|---------------------------------2-2-2-2-2-2-2-2-4-4-4-4-4-4-4-4--|
|---------------------------------2-2-2-2-2-2-2-2-4-4-4-4-4-4-4-4--|
|---------------------------------0-0-0-0-0-0-0-0-2-2-2-2-2-2-2-2-o|
|------------------------------------------------------------------|


|------------------------------------------------------------------|
|-----------------------------------------------------------------o|
|-6-6-6-6-6---6-6-6-6-6---6-6-6---2-2-2-2-2-2-2-2-4-4-4-4-4-4-4-4--|
|-6-6-6-6-6---6-6-6-6-6---6-6-6---2-2-2-2-2-2-2-2-4-4-4-4-4-4-4-4--|
|-4-4-4-4-4---4-4-4-4-4---4-4-4---0-0-0-0-0-0-0-0-2-2-2-2-2-2-2-2-o|
|------------------------------------------------------------------|


    Guitar 4:  
|----------------------------------------------------4-------4-------------|
|o-4---(4)b5---(4)---------------------------------------4----------------o|
|--------------------4---------------(4)---(4)-----------------------------|
|--------------------------------------------------------------------------|
|o------------------------------------------------------------------------o|
|--------------------------------------------------------------------------|

 
Guitar 3:
|-------------------------------------------------------------------------|
|o------------------------------------------------------------------------o|
|--6-6--6------6--6-6---6-6-6---6-6--6----2--2-2---2-2-2---4-4-4---4-4-4---|
|--6-6--6------6--6-6---6-6-6---6-6--6----2--2-2---2-2-2---4-4-4---4-4-4---|
|o-4-4--4------4--4-4---4-4-4---4-4--4----0--0-0---0-0-0---2-2-2---2-2-2--o|
|---------------------------------------------------------------------------
|


   
Guitar 2:
|--------------------------------------------------------------------------|
|o------------------------------------------------------------------------o|
|--6----------6--------6-------6---------2--------2-------4-------4--------|
|--6----------6--------6-------6---------2--------2-------4-------4--------|
|o-4----------4--------4-------4---------0--------0-------2-------2-------o|
|--------------------------------------------------------------------------|


                                         
   
Guitar 4:
|--12-12----12-----------------------------12-12----12--------------------|
|o-------12--------------------------------------12----------------------o|
|----------------13---------------(13)-------------------13-----(13)------|
|-------------------------------------------------------------------------|
|o-----------------------------------------------------------------------o|
|-------------------------------------------------------------------------|

  
 Guitar 3

|-------------------------------------------------------------------------|
|o-----------------------------------------------------------------------o|
|--6--6--6--6--6-6--6-6-6--6--6--6---2--2--2--2--2-2---4-4-4---4--4--4----|
|--6--6--6--6--6-6--6-6-6--6--6--6---2--2--2--2--2-2---4-4-4---4--4--4----|
|o-4--4--4--4--4-4--4-4-4--4--4--4---0--0--0--0--0-0---2-2-2---2--2--2---o|
|-------------------------------------------------------------------------|


   Guitar 2:
|-----------------------------------------------------------------------|
|o---------------------------------------------------------------------o|
|---6----------6------6-----6-------2--------2------4-------4-----------|
|---6----------6------6-----6-------2--------2------4-------4-----------|
|o--4----------4------4-----4-------0--------0------2-------2----------o|
|-----------------------------------------------------------------------|



|-12-12----12----------------------|
|-------12-------------------------|
|---------------13-----------------|
|----------------------------------|
|----------------------------------|
|----------------------------------|


|----------------------------------|
|----------------------------------|
|--2--2--2----2--2-2---6-6-6-6-6---|
|--2--2--2----2--2-2---6-6-6-6-6---|
|--0--0--0----0--0-0---4-4-4-4-4---|
|----------------------------------|


|----------------------------------|
|----------------------------------|
|--2----------2--------6-------6---|
|--2----------2--------6-------6---|
|--0----------0--------4-------4---|
|----------------------------------|


    Guitar 1
    
|--7-7-7-7-7---7-7-7-7-7---7-7-7-----------------------------------|
|o-5-5-5-5-5---5-5-5-5-5---5-5-5-----------------------------------|
|----------------------------------2-2-2-2-2---4-4-4-4-4---4-4-4-x-|
|----------------------------------2-2-2-2-2---4-4-4-4-4---4-4-4-x-|
|o---------------------------------0-0-0-0-0---2-2-2-2-2---2-2-2-x-|
|------------------------------------------------------------------|


   Guitar 2:

|------------------------------------------------------------------|
|o-----------------------------------------------------------------|
|--6-6-6-6-6---6-6-6-6-6---6-6-6---2-2-2-2-2---4-4-4-4-4---4-4-4---|
|--6-6-6-6-6---6-6-6-6-6---6-6-6---2-2-2-2-2---4-4-4-4-4---4-4-4---|
|o-4-4-4-4-4---4-4-4-4-4---4-4-4---0-0-0-0-0---2-2-2-2-2---2-2-2---|
|------------------------------------------------------------------|



|-7-7-7-7-7---7-7-7-7-7---7-7-7------------------------------------|
|-5-5-5-5-5---5-5-5-5-5---5-5-5-----------------------------------o|
|---------------------------------2-2-2-2-2-2-2-2-4-4-4-4-4-4-4-4--|
|---------------------------------2-2-2-2-2-2-2-2-4-4-4-4-4-4-4-4--|
|---------------------------------0-0-0-0-0-0-0-0-2-2-2-2-2-2-2-2-o|
|------------------------------------------------------------------|


|------------------------------------------------------------------||
|-----------------------------------------------------------------o||
|-6-6-6-6-6---6-6-6-6-6---6-6-6---2-2-2-2-2-2-2-2-4-4-4-4-4-4-4-4--||
|-6-6-6-6-6---6-6-6-6-6---6-6-6---2-2-2-2-2-2-2-2-4-4-4-4-4-4-4-4--||
|-4-4-4-4-4---4-4-4-4-4---4-4-4---0-0-0-0-0-0-0-0-2-2-2-2-2-2-2-2-o||
|------------------------------------------------------------------||


  
|-----------------------------------------------------------------|
|-----------------------------------------------------------------|
|-6-6-6-6-6-6-6-6-2-2-2-2-4-4-4-4-6-6-6-6-6-6-6-6-2-2-2-2-4-4-4-4-|
|-6-6-6-6-6-6-6-6-2-2-2-2-4-4-4-4-6-6-6-6-6-6-6-6-2-2-2-2-4-4-4-4-|
|-4-4-4-4-4-4-4-4-0-0-0-0-2-2-2-2-4-4-4-4-4-4-4-4-0-0-0-0-2-2-2-2-|
|-----------------------------------------------------------------|


|-----------------------------------------------------------------|
|-----------------------------------------------------------------|
|-6-6-6-6-6-6-6-6-2-2-2-2-4-4-4-4-6-6-6-6-6-6-6-6-2-2-2-2-4-4-4-4-|
|-6-6-6-6-6-6-6-6-2-2-2-2-4-4-4-4-6-6-6-6-6-6-6-6-2-2-2-2-4-4-4-4-|
|-4-4-4-4-4-4-4-4-0-0-0-0-2-2-2-2-4-4-4-4-4-4-4-4-0-0-0-0-2-2-2-2-|
|-----------------------------------------------------------------|


    
|--4-4-4-4-------------------------4-4-4-4--------------------------|
|o---------7-7-5-5-4-4-4-4-2-2-2-2---------7-7-5-5-4-4-4-4-2-2-2-2-o|
|-------------------------------------------------------------------|
|-------------------------------------------------------------------|
|o-----------------------------------------------------------------o|
|-------------------------------------------------------------------|

  
|-------------------------------------------------------------------|
|o-----------------------------------------------------------------o|
|--6---6---6---6---6---6---6---6---2---2---2---2---4---4---4---4----|
|--6---6---6---6---6---6---6---6---2---2---2---2---4---4---4---4----|
|o-4---4---4---4---4---4---4---4---0---0---0---0---2---2---2---2---o|
|-------------------------------------------------------------------|


|-------------------------------------|
|-------------------------------------|
|-------------------------------------|
|-------------------------------------|
|-------------------------------------|
|-------------------------------------|


|----0-0-0-0-0-0-0-0-0----0-0-0-0-0---|
|----0-0-0-0-0-0-0-0-0----0-0-0-0-0---|
|-6--6-6-6-6-6-6-6-6-6-2--2-4-4-4-4---|
|-6--6-6-6-6-6-6-6-6-6-2--2-4-4-4-4---|
|-4--4-4-4-4-4-4-4-4-4-0--0-2-2-2-2---|
|-------------------------------------|


   
|----------------------------------|
|o---------------------------------|
|--2-2-2-2-2-2-2-2-6-6-6-6-6-6-6-6-|
|--2-2-2-2-2-2-2-2-6-6-6-6-6-6-6-6-|
|o-0-0-0-0-0-0-0-0-4-4-4-4-4-4-4-4-|
|----------------------------------|

 
|----------------------------------|
|o---------------------------------|
|--2-------2-------6-------6-------|
|--2-------2-------6-------6-------|
|o-0-------0-------4-------4-------|
|--0-------0-------4-------4-------|


                                 
|----------------------------------|  x8
|---------------------------------o|
|-4-4-4-4-4-4-4-4-4-4-4-4-4-4-4-4--|
|-2-2-2-2-2-2-2-2-2-2-2-2-2-2-2-2--|
|-2-2-2-2-2-2-2-2-2-2-2-2-2-2-2-2-o|
|----------------------------------|

                                   
|----------------------------------|   x8
|---------------------------------o|
|-4-------4-------4-------4--------|
|-4-------4-------4-------4--------|
|-2-------2-------2-------2-------o|
|-2-------2-------2-------2--------|


   
|-^0----^0----^0----|
|-^0----^0----^0----|
|-^2----^6----^4----|
|-^2----^6----^4----|
|-^0----^4----^2----|
|-^0----^4----^2----|


|-^0----^0----^0----|
|-^0----^0----^0----|
|-^2----^6----^4----|
|-^2----^6----^4----|
|-^0----^4----^2----|
|-^0----^4----^2----|



| b  bend note
| /  slide up
| \  slide down
| h  hammer-on
| p  pull-off
| ~  vibrato
| +  harmonic
| x  Mute note
============================================================================





Comments


Popular A Thorn For Every Heart tabs & chords
A Night To Remember, A Morning To Forget Bass Tabs
A Night To Remember, A Morning To Forget 1 Bass Tabs
Streetcar Bass Tabs
You're The One Chords
A Night To Remember A Morning To Forget Intro Tabs
Dead Man's Party Tabs
February 1 Tabs
Next Of Kin Tabs
Streetcar Tabs
You're The One Tabs


Song lyrics



↑ Back to top | Tablatures and chords are parodies/interpretations of the original songs. You may use it for private study, scholarship, research or language learning purposes only
© 2014 AZChords.com Contact us | Privacy policy | DMCA | Add/correct tabs | Request tabs | Top 50 tabs