» » »

A Static Lullaby, Withered Bass tabs (ver.1)

Artists:  A B C D E F G H I J K L M N O P Q R S T U V W X Y Z # 

Withered Bass tabs (ver.1)

A Static Lullaby Tabs
Rating:
0/5 (0 votes)
Withered lessons Tabs too difficult? Try these video lessons and learn fast
                A Static Lullaby
"Withered"
...And Don't Forget To Breathe (Track 3)
Drop-D Tuning (DADG)

Intro:
G--------
D--------
A--------
D-10/14\0

{0:05}
G--------------------------------------------------------
D---------------------------------33-------------55------
A----------------------------1111----11-33333333----33333
D-11111111-55555555-11111111-----------------------------

{0:22}
G----------------------------------------------------------------------------
D---------------------------------------------------33-------------55--------
A----------------------------------------------1111----11-33333333----33333--
D-11111111-55555555-11111111-55555555-11111111------------------------------0

Chorus: {0:44} (x4)
G---------------------------------
D---------------------------------
A---------3333--------------------
D-11111111------3-5555555555555555

{1:06}
G------------------------------------
D------------------------------------
A------------------------------------
D-11111111-55555555-11111111-55555555

{1:17} Softer and lighter
G----------------------------------------------------------------------------
D---------------------------------------------------33-------------55--------
A----------------------------------------------1111----11-33333333----33333--
D-11111111-55555555-11111111-5555x5x5-11111111------------------------------0

{1:39} Chorus (x4)

Breakdown {2:01}
G----------------------------------------------------------------------------------------------------
D----------------------------------------------------------------------------------------------------
A----------------------------------------------------------------------------------------------------
D-xxxx00-xxxx00-xxxx0-11111111xxxx00-xxxx00-xxxx0-11111111-000000000000000-1111111xxxx00-xxxx00-xxxx3

{2:20} (x4)
G------------------------------------------------------------------------
D------------------------------------------------------------------------
A------------------------------------------------------------------------
D-555555-8888888888-3333333333333-0-1-555555-8888888888-3333333333333-0-1

G---------------------------------------------------------------------------------
D---------------------------------------------------------------------------------
A---------------------------------------------------------------------------------
D-555555-8888888888-3333333333333-0-1-555555-8888888888-3333333333333333333333333~

{2:45} Chorus (x3)

4th Chorus {3:01}
G-----------------------------------
D-----------------------------------
A---------3333----------------------
D-11111111------3-5555555555-55-55\1

{3:07} Until End
G------------------
D------------------
A------------------
D-11111111-5555555-


Please rate it if you like it. Email me with any questions.
            
Submit corrections

comments powered by Disqus
↑ Back to top | A Static Lullaby Bass for Withered. Lyrics for acoustic guitar and electric guitar. Tablatures and chords are parodies/interpretations of the original songs. You may use it for private study, scholarship, research or language learning purposes only