>
 >
Withered

Withered Guitar Tabs

A Static Lullaby - Withered chords, tabs, tablatures, lyrics

Guitar lessons | Add/correct | Request | Top 50 tabs Artists:  A B C D E F G H I J K L M N O P Q R S T U V W X Y Z 0-9

Withered Guitar Tabs – A Static Lullaby

CD, Sheet music, Poster

Do you like Withered? Share with your friends now
Bass TabsTabsTabs v2
Heres the whole correct song-im not sure what the other version was all about-

drop d

palming intro
e-------------------------------------|
b-------------------------------------|
g-------------------------------------|
d 11111111-55555555-------------------|
a 11111111-55555555-------------------|
D-11111111-55555555-------------------|

gt1

e------------------------------------------------------------|
b------------------------------------------------------------|
g-3333-12-12-14-14-15-15-15-15-12-12-15-151414-10-10-121010--|
d-xxxx-xxxxxxxxxxxxxxxxxxxxxxxxxxxxxxxxxxxxxxxxxxxxxxxxx-----|
a-1111-10-10-12-12-13-13-13-13-10-10-13-13-1212-8-8--10-8-8--|
D------------------------------------------------------------|


gt2
e---------------------------------------------|
b---------------------------------------------|
g---------------------------------------------|
d-1111111155555555---111111118888888833333333-|
a-1111111155555555x2-111111118888888833333333-|
D-1111111155555555---111111118888888833333333-|


verse is same as above-


chorus--

e---------------------------------------|
b---------------------------------------|
g--------5555---------------------------|
d-111111-5555355555555------------------|
a-111111-3333355555555------------------|
D-111111-----355555555------------------|


repeat above but just lightly strum the downtsroke chords for verse 2

repeat chorus-

then into this bridge- gt1

e--------------------------------------|
b--------------------------------------|
g--------------------------------------|
d-111-00-111-00-111-0--111111111-------|
a-111-00-111-00-111-0--111111111-------|
D-111-00-111-00-111-0--111111111-------|


 gt 2 does this in back
e--------------------------------------|
b--------------------------------------|
g--------------------------------------|
d-1h0h1h0h1h0h1h3h1h-------------------|
a--------------------------------------|
D--------------------------------------|

solo--in background just use intro chords--


e--------------------------------------|
b--------------------------------14----|
g--11-10--11h10h10h11-8-6--10-11----10-|
d--------------------------------------|
a--------------------------------------|
D--------------------------------------|

e--------------------------------------|
b-------------16-14-------------14-----|
g-10h11h10h11-------10h11h10h11--------|
d--------------------------------------|
a--------------------------------------|
D--------------------------------------|

e-------------------------------------|
b--------14---------------------------|
g-10h11h-----13-11-10h11h10h11h-------|
d-------------------------------------|
a-------------------------------------|
D-------------------------------------|


back to chorus

then this solo

e-------------------------10---------10---------|
b-13-11h10h11-13-11h10h11----11h10h11-----------|
g-----------------------------------------------|
d------------------------------------- repeat 2-|
a-----------------------------------------------|
D-----------------------------------------------|


thats it -i missed the fast part in the last solo but its those notes-also in the 
of the chorus theres some weird thing i couldnt pick out-other wise its all there





Comments


Popular A Static Lullaby tabs & chords
Lipgloss And Letdown Bass Tabs
Scavenger Bass Tabs
The Shooting Star That Destroyed Us All Bass Tabs
A Song For A Broken Heart Tabs
Easier Said Than Done Intro Tabs
Hang Em Highchorus Rhythm Tabs
Rattlesnake! Tabs
The Shooting Star That Destroyed Us All 1 Tabs
The Shooting Star That Destroyed Us All 2 Tabs
The Shooting Star That Destroyed Us All 3 Tabs


Song lyrics



↑ Back to top | Tablatures and chords are parodies/interpretations of the original songs. You may use it for private study, scholarship, research or language learning purposes only
© 2014 AZChords.com Contact us | Privacy policy | DMCA | Add/correct tabs | Request tabs | Top 50 tabs