>
 >
Withered 1

Withered 1 Guitar Tabs

A Static Lullaby - Withered 1 chords, tabs, tablatures, lyrics

Guitar lessons | Add/correct | Request | Top 50 tabs Artists:  A B C D E F G H I J K L M N O P Q R S T U V W X Y Z 0-9

Withered 1 Guitar Tabs – A Static Lullaby

CD, Sheet music, Poster

Do you like Withered 1? Share with your friends now
Bass TabsTabsTabs v2
Withered
A Static Lullaby

Intro:

g1 x8 x4 x4 x8 x8 x8 x8 x8 x8 x8 x8                             x8
e|------------------------------------------------------------------|
B|------------------------------------------------------------------|
G|-3--3--12-14-14-15-12-15-14-10-10-10/-12-12-12-12-10/-12-12---12--|
D|-x--x--x--x--x--x--x--x--x--x--x--x-/-x--x--x--x--x-/-x--x----x---|
A|-1--1--10-12-12-13-10-13-12-8--8--8-/-10-10-10-10-8-/-10-10---10--|
D|------------------------------------------------------------------|

g2
e|-------------------------------------|
B|-------------------------------------|
G|-------------------------------------|
D|-11111111-11111111-5555555-55555555--|
A|-11111111-11111111-5555555-55555555--|
E|-11111111-11111111-5555555-55555555--|
   pm.....  ........ ....... ........

g2 x2        x2       x2       x2       x24
e|-------------------------------------------------------|
B|-------------------------------------------------------|
G|-------------------------------------------------------|
D|-111111111-55555555-11111111-88888888-10-1010101010-0--|
A|-111111111-55555555-11111111-88888888-10-1010101010-0--|
D|-111111111-55555555-11111111-88888888-10-1010101010-0--|

Verse:

x2
g1 x8 x8 x8 x8
e|-------------|
B|-------------|
G|-------------|
D|-1--1--5--5--|
A|-1--1--5--5--|
D|-1--1--5--5--|

g2 x8 x8 x8 x8 x8
e|----------------|
B|----------------|
G|-8--8--12-12-8--|
D|-8--8--12-12-8--|
A|-6--6--10-10-6--|
D|----------------|

pre chorus:

g1 x8 x8 x8 x8 x8 x8 x8 x5
e|----------------------------|
B|----------------------------|
G|----------------------------|
D|-1--1--8--8--3--3--3--3--0--|
A|-1--1--8--8--3--3--3--3--0--|
D|-1--1--8--8--3--3--3--3--0--|

g2 x8 x8 x8 x8 x8 x8 x5
e|-------------------------|
B|-------------------------|
G|-8--15-15-10-10-10-10----|
D|-8--15-15-10-10-10-10-0--|
A|-6--13-13-8--8--8--8--0--|
D|----------------------0--|
chorus:

x4
g1 x8 x5    x8 x8
e|----------------|
B|----------------|
G|----5-----------|
D|-1--x--3--5--5--|
A|-1--3--3--5--5--|
E|-1-----3--5--5--|

   x8 x4  x4 x8 x8 x8 x8 x7
e|------------------------------|
B|------------------------------|
G|-3--3-/-12-14-14-15-12-14-15--|
D|-x--x-/-x--x--x--x--x--x--x---|
A|-1--1-/-10-12-12-13-10-12-13--|
D|------------------------------|

g2 w/ effect of somesort x4
e|-3/5/3-5/6/5--|
B|--------------|
G|--------------|
D|--------------|
A|--------------|
D|--------------|

   x2        x2
e|---------------------|----|
B|---------------------|----|
G|--------------------.|----|
D|-111111111-55555555-.|-1--|
A|-111111111-55555555--|-1--|
D|-111111111-55555555--|-1--|

Rest

bridge:

comes in after g2
g1 x8 x8 x8 x8 x8 x8 x8 x5
e|----------------------------|
B|----------------------------|
G|----------------------------|
D|-1--1--8--8--10-10-10-10-0--|
A|-1--1--8--8--10-10-10-10-0--|
D|-1--1--8--8--10-10-10-10-0--|
   pm..

g2
e|--------------|
B|--------------|
G|--------------|
D|-1~-5~-1~-5~--|
A|-1~-5~-1~-5~--|
D|-1~-5~-1~-5~--|

   x8 x8 x8 x8 x8 x8 x5
e|-------------------------|
B|-------------------------|
G|-8--15-15-10-10-10-10----|
D|-8--15-15-10-10-10-10-0--|
A|-6--13-13-8--8--8--8--0--|
D|----------------------0--|

chorus:

x4
g1 x8 x5    x8 x8
e|----------------|
B|----------------|
G|----5-----------|
D|-1--x--3--5--5--|
A|-1--3--3--5--5--|
E|-1-----3--5--5--|

g2 w/ effect of somesort x4
e|-3/5/3-5/6/5--|
B|--------------|
G|--------------|
D|--------------|
A|--------------|
D|--------------|

breakdown:

x2
g1
e|-----------------------------------------|
B|-----------------------------------------|
G|-----------------------------------------|
D|-111-00--111-00-111-0-11111111-11111111--|
A|-111-00--111-00-111-0-11111111-11111111--|
D|-111-00--111-00-111-0-11111111-11111111--|

e|------3333<<------3333<<--------------------|
B|------3333<<------3333<<--------------------|
G|--------------------------------------------|
D|-1111--------1111--------11111111-11111111--|
A|-1111--------1111--------11111111-11111111--|
D|-1111--------1111--------11111111-11111111--|
   pm..        pm..

e|------------------------|
B|------------------------|
G|------------------------|
D|-111-00--111-00-111-03--|
A|-111-00--111-00-111-03--|
D|-111-00--111-00-111-03--|

g2
x3                     x2
e|--------------------------------|----------------------|
B|-6p3-6p3-6p3-6p3-6p3------------|-6p3-6p3-6p3-6p3-6p3--|
G|-------------------------------.|----------------------|
D|---------------------111111111-.|----------------------|
A|---------------------111111111--|----------------------|
D|---------------------111111111--|----------------------|

solo:

g1
e|------------------------------------------------------------------|
B|------------------------------------------------------------------|
G|------7-10---------------------------7-10--------------//-12-10~--|
D|-//-8------7~-7-7h8-7h0-//-5-3~-//-8------7~-7-7h8-7h0------------|
A|------------------------------------------------------------------|
D|------------------------------------------------------------------|

e|--------------------------------------------------|
B|-11p10----13p10----11p10----13p10----10h11p10-----|
G|-------10-------10-------10-------10----------10--|
D|--------------------------------------------------|
A|--------------------------------------------------|
D|--------------------------------------------------|


e|-----------------------------------------------------|
B|-11p10----13p10----11p10----13p10----10h11p10----11--|
G|-------10-------10-------10-------10----------10-----|
D|-----------------------------------------------------|
A|-----------------------------------------------------|
D|-----------------------------------------------------|

                                       x4
e|-//-13--------------------------------------------------------------------|
B|-------10-11-10----10-11-10-//-13~11~10h11-10-11-10-11-10-11-10-11-10-11--|
G|----------------10--------------------------------------------------------|
D|--------------------------------------------------------------------------|
A|--------------------------------------------------------------------------|
D|--------------------------------------------------------------------------|

g2
  x4
e|--------------------------------------|---------------|
B|--------------------------------------|---------------|
G|-------------------------------------.|---------------|
D|-555555--8~8888888-33333333-33333333-.|--33333333-3~--|
A|-555555--8~8888888-33333333-33333333--|--33333333-3~--|
D|-555555--8~8888888-33333333-33333333--|--33333333-3~--|

chorus:

x4
g1 x8 x5    x8 x8
e|----------------|
B|----------------|
G|----5-----------|
D|-1--x--3--5--5--|
A|-1--3--3--5--5--|
E|-1-----3--5--5--|


g2 w/ effect of somesort x4
e|-3/5/3-5/6/5--|
B|--------------|
G|--------------|
D|--------------|
A|--------------|
D|--------------|

outro

x2
g1
e|-------------------|------------------|
B|-------------------|-3----------------|
G|--5-3-2-3-2---2---.|---3-2-3-2---2----|
D|------------5---5-.|-----------5---5--|
A|-------------------|------------------|
D|-------------------|------------------|
   x2                 x2

x2
e|----------------------|----------------------|
B|----------------------|-3--------------------|
G|-5-3-2-3-2-0h2h3p2p0-.|---3-2-3-2-0h2h3p2p0--|
D|---------------------.|----------------------|
A|----------------------|----------------------|
D|----------------------|----------------------|
   x2                     x2

not sure about this part
e|------------------------------------------|
B|------------------------------------------|
G|-0-1h2h3h0-0-1h2h3h0-0-1h2h3h0-3h5h7-5/7--|
D|------------------------------------------|
A|------------------------------------------|
D|------------------------------------------|

x3
e|--------------------------------------|-----------|
B|--------------------------------------|-----------|
G|-15//12-1212-12//14-1414-14//15-1515-.|-15-14-10--|
D|-x---x--x-x--x---x--x-x--x---x--x-x--.|-x--x--x---|
A|-13//10-1010-10//12-1212-12//13-1313--|-13-12-8---|
D|--------------------------------------|-----------|


g2 x2       x2 for rest of song    end on
e|-----------------------------------|
B|-----------------------------------|
G|-----------------------------------|
D|-11111111-55555555--------------5--|
A|-11111111-55555555--------------5--|
D|-11111111-55555555--------------5--|

THE END





Comments


Popular A Static Lullaby tabs & chords
Lipgloss And Letdown 1 Bass Tabs
Love To Hate, Hate To Me Bass Tabs
The Shooting Star That Destroyed Us All 1 Bass Tabs
A Sip Of Wine Chased With Cyanide 2 Tabs
Annunciate While You Masticate Tabs
Hang ‘Em High Tabs
Love To Hate, Hate To Me 2 Tabs
Smooth Modulator Tabs
Toxic 3 Tabs
Withered (Solo) Tabs


Song lyrics



↑ Back to top | Tablatures and chords are parodies/interpretations of the original songs. You may use it for private study, scholarship, research or language learning purposes only
© 2014 AZChords.com Contact us | Privacy policy | DMCA | Add/correct tabs | Request tabs | Top 50 tabs